» » »

Me First And The Gimme Gimmes, Favorite Things Bass tabs (ver.1)

Artists:  A B C D E F G H I J K L M N O P Q R S T U V W X Y Z # 

Favorite Things Bass tabs (ver.1)

Me First And The Gimme Gimmes Tabs
 Rating:
4/5 (4 votes)
Favorite Things lessons Tabs too difficult? Try these video lessons and learn fast
1
                INTRO
G-----------------------------------+
D-----------------------------------+
A--------------------------33333-22-+
E-55555---11111---33333-------------+

VERSE *=play 14X 
G----------------------------------------------------------+
D----------------------------------------------------------+
A-----------5-55--------3-33--------3-33--------5-55--7-77-+
E-5*---1*---------3-33--------1-11--------1-11-------------+

VERSE2 *=play 14X 
G----------------------------------------------------------+
D----------------------------------------------------------+
A-----------5-55--------3-33--------3-33--------5-55-------+
E-5*---1*---------3-33--------1-11--------1-11--------0-00-+

CHORUS %=play 10X
G-------------------------------------------------------------->
D-------------------------------------------------------------->
A---------55555---------8%---55555--33333---------33333--22222->
E--55555---------55555---------------------33333--------------->

---+
---+
1%-+
---+

INTRO2
G--------------------------+
D--------------------------+
A-11111---11111---44444-33-+
E--------------------------+

VERSE3 *=play 14X 
G----------------------------------------------------------+
D----------------------------------------------------------+
A-1*--------6-66--------4-44--------4-44--------6-66--8-88-+
E------2*---------4-44--------2-22--------2-22-------------+

BRIDGE #=play 5X   %=play 10X
G--------------------------------------------------------------------+
D--------------------------------------------------------------------+
A-1#-/13#--------6%---6-66--------4-44--------4-44--------6-66--8-88-+
E-----------6%--------------4-44--------2-22--------2-22-------------+

CHORUS3 %=play 10X
G-----------------------------------------------------+
D--88888----------------------------------------------+ Then Fatty ***s up.  
A---------66666---------9%---66666--44444---------4*--+ (I DONïT TAB THAT!!)
E----------------66666---------------------44444------+
            
Submit corrections

comments powered by Disqus
↑ Back to top | Me First And The Gimme Gimmes Bass for Favorite Things. Lyrics for acoustic guitar and electric guitar. 1 Tablatures and chords are parodies/interpretations of the original songs. You may use it for private study, scholarship, research or language learning purposes only