» » »

Me First And The Gimme Gimmes, Elenor Bass tabs (ver.1)

Artists:  A B C D E F G H I J K L M N O P Q R S T U V W X Y Z # 

Elenor Bass tabs (ver.1)

Me First And The Gimme Gimmes Tabs
 Rating:
4/5 (4 votes)
Elenor lessons Tabs too difficult? Try these video lessons and learn fast
                plz rate


INTRO at 00:06
G-----------5-------------------+
D---2---2-5-------2---2-5-------+
A-2-------------2---------3---2-+
E-------------------------------+

VERSE 
G--------------------------------------------------------------------+
D-2-2-2-2-2-2-5-7-------------------------1-2-4-2----2-2-2-2---------+
A------------------0-0-0-0-0-3-5-0--2-2-2---------2------------3---2-+
E--------------------------------------------------------------------+

VERSE2
G---------------------------------------------------------------------+
D-2-2-5-7-9-7-5-2-----------------------------1-2-4--2-2-2-2----------+
A------------------0-0-0-0-0-3-5-3--2-2-2-2-2-----------------2-3-2---+
E-------------------------------------------------------------------3-+

CHORUS *=play 16X #=play 8X
G---------------------------------------------------------+
D---------------------------------------------------------+
A---------------------------9*----9*--------------2-3-2---+
E-0*----4*----5#--0#--7%----------------7*----0%--------3-+

BRIDGE 
G---------5-------------------+
D-2---2-5-------2---2-5-------+
A-------------2---------3---2-+
E-----------------------------+

VERSE3 /=slide up
G---------------------------------------------------------------------+
D-2-2-2-5-7-5-2-2---------------------------/4-2-1----2-2-2-2---------+
A------------------0-0-0-0-0-3-5-3--2-2-2-2--------2------------3---2-+
E---------------------------------------------------------------------+

VERSE4
G---------------------------------------------------------------------+
D-2-2-9-7-5-7-5-2-----------------------------1-2-4--2-2-2-2----------+
A------------------0-0-0-3-5-3-2-0--2-2-2-2-2-----------------2-3-2---+
E-------------------------------------------------------------------3-+

CHORUS2 *=play 16X #=play 8X
G-------------------------------------------------------------------------------+ Play  
D-------------------------------------------------------------------------------+ 33,3%
A---------------------------9*----9*------------------------------------------7-+ of
E-0*----4*----5#--0#--7%----------------7*----0%--0*----4#--7#--0*----4#--7#----+ INTRO.

have fun
            
Submit corrections

comments powered by Disqus
↑ Back to top | Me First And The Gimme Gimmes Bass for Elenor. Lyrics for acoustic guitar and electric guitar. Tablatures and chords are parodies/interpretations of the original songs. You may use it for private study, scholarship, research or language learning purposes only