» » »

Me First And The Gimme Gimmes, Different Drum Tabs (ver.1)

Artists:  A B C D E F G H I J K L M N O P Q R S T U V W X Y Z # 

Different Drum Tabs (ver.1)

Me First And The Gimme Gimmes Tabs
 Rating:
4/5 (4 votes)
Different Drum lessons Tabs too difficult? Try these video lessons and learn fast
1
                -----------------------------------------------------------------
-----------------------------------------------------------------

Tuning: Standard

Intro:
e|------------------------------------------|
B|------------------------------------------|
G|--------6666--7777--9999------------------|
D|--7777--6666--7777--9999-(X4)-Pick-Slide--|
A|--7777--4444--5555--7777------------------|
E|--5555------------------------------------|

Verse:
e|------------------------------------------|
B|------------------------------------------|
G|--------6666--7777--9999------------------|
D|--7777--6666--7777--9999-(X7)-------------|
A|--7777--4444--5555--7777------------------|
E|--5555------------------------------------|
"You and I, travel to the beat of a...."

e|------------------------------------------|
B|------------------------------------------|
G|--------6666--7777--99--------------------|
D|--7777--6666--7777--99--999999------------|
A|--7777--4444--5555--77--999999------------|
E|--5555------------------777777------------|
"I've got my doubts, you can't see the forest..."

Post- Verse 1:
e|------------------------------------------|
B|------------------------------------------|
G|--7-7-7-7-7-7-7-7--9-9-9-9-9-9-9-9--------|
D|--7-7-7-7-7-7-7-7--9-9-9-9-9-9-9-9--------|
A|--5-5-5-5-5-5-5-5--7-7-7-7-7-7-7-7--------|
E|------------------------------------------|
"So don't get me wrong it's not I'm...."

Part 2:
e|------------------------------------------|
B|------------------------------------------|
G|--7-7-7-7--9-9-9-9------------------------|
D|--7-7-7-7--9-9-9-9--77777777--------------|
A|--5-5-5-5--7-7-7-7--77777777--------------|
E|--------------------55555555--------------|
"For a boy to love only me...."

Part 3:
e|-------------------------------------------|
B|-------------------------------------------|
G|--77777777--99999999-----------------------|
D|--77777777--99999999--7777-6666-4444-2222--|
A|--55555555--77777777--7777-6666-4444-2222--|
E|----------------------5555-4444-2222-0000--|
"Yeah, and I ain't saying that you...."

Part 4:
e|------------------------------------------|
B|------------------------------------------|
G|--4444444444444444--99999999--------------|
D|--4444444444444444--99999999--------------|
A|--2222222222222222--77777777--------------|
E|------------------------------------------|
"For any person, place or thing to try...."

-Then Verse

Little Riff:
e|------------------------|
B|------------------------|
G|--99-7-6-7--------------|
D|--99-7-6-7--7-Let Ring--|
A|--77-5-4-5--7-----------|
E|------------5-----------|

-Then Post-Verse 1
-Then Part 2 + 3 + 4
-Then Intro (Until the end)

YAH! YAH! YAH!
            
Submit corrections

comments powered by Disqus
↑ Back to top | Me First And The Gimme Gimmes Tabs for Different Drum. Lyrics for acoustic guitar and electric guitar. 1 Tablatures and chords are parodies/interpretations of the original songs. You may use it for private study, scholarship, research or language learning purposes only