» » »

Me First And The Gimme Gimmes, Danny's Song Bass tabs (ver.1)

Artists:  A B C D E F G H I J K L M N O P Q R S T U V W X Y Z # 

Danny's Song Bass tabs (ver.1)

Me First And The Gimme Gimmes Tabs
Rating:
0/5 (0 votes)
Hard to play? Try these video lessons and learn fast.
                
Verse 1(bass enters at 0:05)
G:-----------------------------------------------------------------------|
D:-----------------------------------------------------------------------|
A:-0~-/55----------------------------------------------------------------|x1
E:-----------------------------------------------------------------------|

G:-------------------------------------------------------------------|
D:-------------------------------------------------------------------|
A:-55----------------------------------------------------------------|x1
E:-------------------------------------------------------------12~-/-|

Chorus
G:------------------------------------------------------------------|
D:------------------------------------------------------------------|
A:-----------------5-554-442-222222----------------5-554-442-222222-|x1
E:-3-3333335-555555----------------3-3333335-555555-----------------|

G:------------------------------------------------------------------|
D:------------------------------------------------------------------|
A:-----------------5-5555553-3333332-222222-------------------------|x1
E:-3-3333335-555555------------------------0-0000005-55555555555555-|

Verse 2
G:-------------------------------------------------------------------|
D:----------------------------242--------------2222/7777777777777777-|
A:-555555553333333322222222224---42----------------------------------|x2
E:---------------------------------000000000000----------------------|

Repeat:
Chorus

Verse 3
G:------------------------------------------------------------------|
D:------------------------------------------------------------------|
A:-5-----------------------------------------------------------0~-/-|x1
E:------------------------------------------------------------------|

G:-------------------------------------------------------------------|
D:-------------------------------------------------------------------|
A:-55------33------2-2-----------------------------------------------|x1
E:-------------------------------------------------------------12~-/-|

Chorus/Outro
G:------------------------------------------------------------------|
D:------------------------------------------------------------------|
A:-----------------5-554-442-222222----------------5-554-442-222222-|x1
E:-3-3333335-555555----------------3-3333335-555555-----------------|

G:------------------------------------------------------------------|
D:------------------------------------------------------------------|
A:-----------------5-5555553-3333332-222222-------------------------|x1
E:-3-3333335-555555------------------------0-0000005~~~~~~~---------|

G:---------------------------|
D:---------------------------|
A:-5555555555555555555555555-|x1
E:---------------------------|
            

comments powered by Disqus
↑ Back to top | Me First And The Gimme Gimmes Bass for Danny's Song. Lyrics for acoustic guitar and electric guitar. Tablatures and chords are parodies/interpretations of the original songs. You may use it for private study, scholarship, research or language learning purposes only