» » »

Me First And The Gimme Gimmes, Cabaret Bass tabs (ver.1)

Artists:  A B C D E F G H I J K L M N O P Q R S T U V W X Y Z # 

Cabaret Bass tabs (ver.1)

Me First And The Gimme Gimmes Tabs
 Rating:
4/5 (4 votes)
Cabaret lessons Tabs too difficult? Try these video lessons and learn fast
1
                very hard to tab. plz rate and make corections


INTRO X7 
G-------------------+
D-----7-------------+
A-0-0---0--0-0-5h77-+
E-------------------+

CHORUS 
G-------------------------------------------------------------------------+
D-----7----7-7--------7--------7--------7-6-4--44------------4------------+
A-0-0---0------7--5-5---5--5-5---5--4-4-----------7-5-4--2-2----2-----5-4-+
E-----------------------------------------------------------------0-0-----+

Then play INTRO X5, CHORUS and INTRO X1.

BRIDGE
G--------------------------------------------------------------------------+
D-----7-------------------7--7-7-6-4------4--------------------------------+
A-5-5---5--5-5-4-5------7--------------------------0-2--2-2-4-5--7-7-7-4-2-+
E-------------------5-5---------------2-2---2--2-2-------------------------+

Then play INTRO X3.

CHORUS2 
G----------7-7-66-4----------------------------------------------------------+
D-----7------------------7--------7--------7-6-4--44------------4------------+
A-0-0---0------------5-5---5--5-5---5--4-4-----------7-5-4--2-2----2-----5-4-+
E--------------------------------------------------------------------0-0-----+

Then play INTRO X5.

VERSE
G-------------------------------------------------------------1-4-----------+
D-----7-----------------4-----------------4--------------22-2------2222-----+
A-5-5---5--5-5---5-----------------0--2-2---2--2222-4-5-----------------5-4-+
E--------------25---2-2---2--2-2-4------------------------------------------+

Then play INTRO X4.

VERSE2 
G-----------------------6--------4/66--4-4------4-4-----------------------+
D-----7-------------4-4---4--4-4-----------7-4------7-4-------------------+
A-5-5---5--5-5-457---------------------------------------7-7-5-4--7-7-5-4-+
E-------------------------------------------------------------------------+

BRIDGE2 
G--------------------------------------------------------------------+
D-----7------------------7-----------------4-------------------------+
A-5-5---5--5-5-45/7--0-0---0--0-0-2-4-----------------------------8r-+
E--------------------------------------2-2---2--2-2-4-5--7r----------+

VERSE3 at 02:34 *=play 6X
G--------------------------------+
D--------------------------------+
A-----8*------8*-----------------+
E-6*------6*------6*--6*--6*--6*-+

CHORUS3 *=play 6X 
G----------------------------------+
D-------------5*-------------------+
A-6*--6*--5*------3*------1*/(13)*-+
E---------------------1*-----------+

VERSE4 *=play 6X 
G------------------------------------+
D------------------------------------+
A-----8*------8*--------/(13)*-(13)*-+
E-6*------6*------6*--6*-------------+

CHORUS4 *=play 6X 
G--------------------------------+
D-------------5*-----------------+
A-6*--6*--5*------3*------1*--1*-+
E---------------------1*---------+

CHORUS5 *=play 6X 
G----------------------------------------------------------+
D-------------5*-------------------------------------------+
A-6*--6*--5*------3*------6*--8*--6*--8*--9*--(13)r---(13)-+
E---------------------1*-----------------------------------+

key:   
r:let note ring
/:slide up
h:hammer on
            
Submit corrections

comments powered by Disqus
↑ Back to top | Me First And The Gimme Gimmes Bass for Cabaret. Lyrics for acoustic guitar and electric guitar. 1 Tablatures and chords are parodies/interpretations of the original songs. You may use it for private study, scholarship, research or language learning purposes only