>
 >
Blowin In The Winde

Blowin In The Winde Bass Tabs

Me First And The Gimme Gimmes - Blowin In The Winde chords, tabs, tablatures, lyrics

Guitar lessons | Add/correct | Request | Top 50 tabs Artists:  A B C D E F G H I J K L M N O P Q R S T U V W X Y Z 0-9

Blowin In The Winde Bass Tabs – Me First And The Gimme Gimmes

CD, Sheet music, Poster

Do you like Blowin In The Winde? Share with your friends now
Bass Tabs
VERSE at00:09 *=play 6X   %=play 18X   =play 12X
G----------------------------------------------+
D----------------------------------------------+
A-0*--5*--0%---5*--0%---5*--0*------0*--5*--7-+
E-------------------------------2*-------------+

CHORUS *=play 6X   %=play 18X   
G--------------------------------------------------------+
D--------------------------------------------------------+
A-0*--5*--0%---5*--0%---5*--7*--------------------5*--7*-+
E-------------------------------5-5-5--4-4-4--2*---------+

BRIDGE *=play 6X
G---------------------+
D---------------------+
A-0*--5-0-0-5-0-0-5-0-+
E---------------------+

VERSE2 *=play 6X   %=play 18X   =play 12X
G--------------------------------------------------+
D--------------------------------------------------+
A-0*--5*--0%---5*--12--0*--5*--0*------0*--5*--7%-+
E-----------------------------------2*-------------+

CHORUS2 *=play 6X   %=play 18X   =play 12X  
G--------------------------------------------------------+
D--------------------------------------------------------+
A-0*--5*--0%---5*--12--5*--7*--------------------5*--7*-+
E-------------------------------5-5-5--4-4-4--2*---------+

BRIDGE2 =play 12X
G---------------------------------------------------------------+
D---------------------------------------------------------------+
A-0--5*--7*-----------2-222--5-555--0*--5--0*--5-0-0-5-0-0-5-0-+
E-------------5--3--2-------------------------------------------+





Comments


Popular Me First And The Gimme Gimmes tabs & chords
Build Me Up Buttercup Bass Tabs
I Am A Rock Bass Tabs
Mother And Child Reunion Bass Tabs
One Tin Soldier Bass Tabs
Save The Best For Last Bass Tabs
Somewhere Over The Rainbow Bass Tabs
Puff The Magic Dragon Chords
The Longest Time Chords
I Believe I Can Fly Drum Tabs
Desperado Tabs


Song lyrics



↑ Back to top | Tablatures and chords are parodies/interpretations of the original songs. You may use it for private study, scholarship, research or language learning purposes only
© 2014 AZChords.com Contact us | Privacy policy | DMCA | Add/correct tabs | Request tabs | Top 50 tabs