>
 >
Blowin' In The Wind

Blowin' In The Wind Guitar Tabs

Me First And The Gimme Gimmes - Blowin' In The Wind chords, tabs, tablatures, lyrics

Guitar lessons | Add/correct | Request | Top 50 tabs Artists:  A B C D E F G H I J K L M N O P Q R S T U V W X Y Z 0-9

Blowin' In The Wind Guitar Tabs – Me First And The Gimme Gimmes

CD, Sheet music, Poster

Do you like Blowin' In The Wind? Share with your friends now
Bass TabsChordsTabs
band:me first and the gimme gimmes
album:blow in the wind 
A-guitar1  B-guitar2

verseAx1.5 *x6 !x8 >-pickslide
e|--------------------------------------------------------------------|
b|-----3*----------3*---------------------3*--------------3*----------|
g|-2*--2---2*--2*--2---2!-------------2*--2---1*--2*--2*--2---1!------|
d|-2---0---2---2---0---2--------------2---0---2---4---2---0---2--->>>-|
a|-0-------0---0-------0--------------0-------2---4---0-------2--->>>-|
e|--------------------------------------------0---2-----------0--->>>-|
  
verseB *x6 !x10 b-bend up h-hammer on >-pick slide p-pull off
e|-----------------------------10b10b---------------------------------/
b|-----3*----------3*-------810-----------3*--------------3*----------/
g|-2*--2---2*--2*--2---2---9----------2*--2---1*--2*--2*--2---1!------/
d|-2---0---2---2---0---2--------------2---0---2---4---2---0---2--->>>-/
a|-0-------0---0-------0--------------0-------2---4---0-------2--->>>-/
e|--------------------------------------------0---2-----------0--->>>-/

verseBcont.
e/---------------------------------------|
b/-----3*----------3*--------------------|
g/-2*--2---2*--2*--2---2-----------------|
d/-2---0---2---2---0---2--------5h7p5-7b-|
a/-0-------0---0-------0---5h7p5---------|
e/---------------------------------------|

chorusA&B *x4
e|----------------------------------------|
b|-3*--------------3*-----------2---2---2-|
g|-2---1*--2*--2*--2---1*--22222322232223-|
d|-0---2---2---4---0---2---22222022202220-|
a|-----2---0---4-------2---00000-000-000--|
e|-----0-------2-------0------------------|

A plays verseAx1.5

verse2B *x6 h-hammer on p-pull off
e|-------------------------|12h14p12p10|12b--------------------------------/
b|-----3*----------3*------|-----------|-----3*-------------3*-------------/
g|-2*--2---2*--2*--2---2---|-----------|-2*--2--1*--2*--2*--2--99-1111-1313/
d|-2---0---2---2---0---2---|-----------|-2---0--2---4---2---0--xx--x-x--x-x/
a|-0-------0---0-------0---|----x3-----|-0------2---4---0------77--9-9-1111/
e|-------------------------|-----------|--------0---2----------------------/

verse2Bcont.
e|------------------------------|12h14p12p10|12-|
b|-----------3*----------3*-----|-----------|13-|
g|-1616--2*--2---2*--2*--2---2--|-----------|---|
d|--x-x--2---0---2---2---0---2--|-----------|---|
a|-1414--0-------0---0-------0--|-----x3----|---|
e|------------------------------------------|---|

chorus2A&B *x4 !x8
e|------------------------------------------------------|
b|-3*--------------3*----------3-3--------------3-3-----|
g|-2---1*--2*--2*--2---1*--2!--2-2-1-1-2-2--2-2-4-4-2-2-|
d|-0---2---2---4---0---2---2---0-0-2-2-2-2--4-4-4-4-2-2-|
a|-----2---0---4-------2---0-------2-2-0-0--4-4-2-2-0-0-|
e|-----0-------2-------0-----------0-0-----32-2---------|

outroA&B
e|-----------------------|
b|------3-----3---3---3--|
g|-222222222222222222222-|
d|-222220222220222022222-|
a|-00000-00000-000-000-0-|
e|-----------------------|

hard at first but practice a lot and ull git it
how..how.how..
Tim Robaczewski





Comments


Popular Me First And The Gimme Gimmes tabs & chords
The Rainbow Connection Bass Tabs
The Rainbow Connection 1 Bass Tabs
The Times They Are A-Changin' Bass Tabs
Seasons In The Sun Chords
All My Loving Tabs
Annie's Song Tabs
Country Roads 1 Tabs
I'll Be There Tabs
Over The Rainbow 1 Tabs
Stand By Your Man Tabs


Song lyrics



↑ Back to top | Tablatures and chords are parodies/interpretations of the original songs. You may use it for private study, scholarship, research or language learning purposes only
© 2014 AZChords.com Contact us | Privacy policy | DMCA | Add/correct tabs | Request tabs | Top 50 tabs