» » »

Me First And The Gimme Gimmes, Ain No Sunshine Tabs (ver.1)

Artists:  A B C D E F G H I J K L M N O P Q R S T U V W X Y Z # 

Ain No Sunshine Tabs (ver.1)

Me First And The Gimme Gimmes Tabs
 Rating:
4/5 (4 votes)
Ain	 No Sunshine lessons Tabs too difficult? Try these video lessons and learn fast
1
                -intro-
E|----------------------------------------------
B|----------------------------------------------
G|------------------77777777-55555555-----------
D|-7777777777777777-77777777-55555555-7777-2-5-7
A|-7777777777777777-55555555-33333333-7777-2-5-7
E|-5555555555555555-------------------5555-0-3-5

-main-                                  
E|----------------------------------------------
B|----------------------------------------------
G|----------------------------------------------
D|-7777-2-5-7-77777777-------(*2)---------------
A|-7777-2-5-7-77777777-------(*2)---------------
E|-5555-0-3-5-55555555-------(*2)---------------

E|----------------------------------------------
B|----------------------------------------------
G|-77777777-55555555------5---------------------
D|-77777777-55555555-7777-5-5-7-----------------
A|-55555555-33333333-7777-3-5-7-----------------
E|-------------------5555---3-5-----------------
            
Submit corrections

comments powered by Disqus
↑ Back to top | Me First And The Gimme Gimmes Tabs for Ain No Sunshine. Lyrics for acoustic guitar and electric guitar. 1 Tablatures and chords are parodies/interpretations of the original songs. You may use it for private study, scholarship, research or language learning purposes only