» » »

Life Is A Lemon Tabs (ver.2)

Artists:  A B C D E F G H I J K L M N O P Q R S T U V W X Y Z # 

Life Is A Lemon Tabs (ver.2)

Meat Loaf
Rating:
0/5 (0 votes)

Hard to play? Try these video lessons and learn fast.
                Main Riff/Intro:         x3          4th Time:
|-----------------------------|-----------------------------|
|-----------------------------|-----------------------------|
|-----------------------------|----------------7-6-4--------|
|--7-4-----4-4-------7-4------|--7-4-----4-4---------7-6-4--|
|------7-4-------7-4-----7-4--|------7-4--------------------|
|-----------------------------|-----------------------------|

Chorus:     x3
|------------------------------|----------------------------|
|------------------------------|----------------------------|
|------------------------------|----------------------------|
|------------------------------|----------------------------|
|--4----6-7-2------------------|-4444444444444444-----------|
|--2----4-5-0------------------|-2222222222222222-----------|

and back 2 the verse.
            
Hard to play? Try these video lessons and learn fast. | Correct




comments powered by Disqus
↑ Back to top | Tablatures and chords are parodies/interpretations of the original songs. You may use it for private study, scholarship, research or language learning purposes only