>
 >
Id Lie For You And Thats The Truth

Id Lie For You And Thats The Truth Guitar Tabs

Meat Loaf - Id Lie For You And Thats The Truth chords, tabs, tablatures, lyrics

Guitar lessons | Add/correct | Request | Top 50 tabs Artists:  A B C D E F G H I J K L M N O P Q R S T U V W X Y Z 0-9

Id Lie For You And Thats The Truth Guitar Tabs – Meat Loaf

CD, Sheet music, Poster

Do you like Id Lie For You And Thats The Truth? Share with your friends now
TabsUkulele

keep in mind this may not be 100% correct i learned it by ear and it's kinda hard to 
hear some parts of it.

Legend
b = bend
h = hammer on
p = pull off
s = slide


e|--17b18-18-18r17-13---17b18r17-13-13-15-17-15-|
B|-------------------13-------------------------|
G|----------------------------------------------|
D|----------------------------------------------|
A|----------------------------------------------|
E|----------------------------------------------|

e|------------------------------------------------------------------------|
B|---------9h11h12-12b14-14-14r12-12-9b11r9r7--4b5-4-2h4r2--0h2p0---------|
G|--9h11h12----------------------------------------------------------4b5--|
D|---------------------------------------------------------------4-2----2-|
A|------------------------------------------------------------------------|
E|------------------------------------------------------------------------|

e|---12b14----14r12p10-------------------------------10-----8---7----6----|
B|---------------------13--11p10h11------10-------------------------------|
G|------------------------------------12-----10--7s9------8---7----5------|
D|------------------------------------------------------------------------|
A|------------------------------------------------------------------------|
E|------------------------------------------------------------------------|


That's it folks enjoy this, Great song, Great solo
there is a really fast run that's barely audible just before the solo
if anyone can hear/figure that out...please contact me!





Comments


Popular Meat Loaf tabs & chords
For Crying Out Loud 1 Chords
Hot Patootie Chords
It's All Coming Back To Me Now Chords
Paradise By The Dashboard Light Chords
Bat Out Of Hell Tabs
In The Land Of The Pig The Butcher Is King Intro Tabs
Two Out Of Three Ain't Bad Tabs
Alive Ukulele
Original Sin Ukulele
Out Of The Frying Pan And Into The Fire Ukulele


Song lyrics



↑ Back to top | Tablatures and chords are parodies/interpretations of the original songs. You may use it for private study, scholarship, research or language learning purposes only
© 2014 AZChords.com Contact us | Privacy policy | DMCA | Add/correct tabs | Request tabs | Top 50 tabs