» » »

Meat Loaf, Cry Over Me Tabs (ver.1)

Artists:  A B C D E F G H I J K L M N O P Q R S T U V W X Y Z # 

Cry Over Me Tabs (ver.1)

Meat Loaf Tabs
Rating:
0/5 (0 votes)
Hard to play? Try these video lessons and learn fast.
                (Intro)
"Cry Over Me" by Meat Loaf

Intro
e-------------------------|
B----11--11---------------|
G--8--------8-------------|
D--------------6-4--------|
A------------------/8-6---|
E-------------------------|

e----------6--6-----------|
B-(7)----7------7---------|
G------8----------8-------|
D-------------------------|
A-------------------------|
E-------------------------|

e-------------------------|
B-------------------------|
G-------------------------|
D--6-4--------------------|
A------/8-6--4------------|
E-------------------------|

Bridge
                 A#5 B5 C5
It's so easy for you
                A#5 B5 C5
To forget about me
                  A#5 B5 C5
Did you ever feel anything?

I couldn't figure out the solo or chorus so
if anyone has the tabs for either I would
appreciate it, any questions or comments,
            

comments powered by Disqus
↑ Back to top | Meat Loaf Tabs for Cry Over Me. Lyrics for acoustic guitar and electric guitar. Tablatures and chords are parodies/interpretations of the original songs. You may use it for private study, scholarship, research or language learning purposes only