>
 >
 >
Us War 54

Us War 54 Guitar Tabs

Mdc - Us War 54 chords, tabs, tablatures, lyrics

Guitar lessons | Add/correct | Request | Top 50 tabs Artists:  A B C D E F G H I J K L M N O P Q R S T U V W X Y Z 0-9

Us War 54 Guitar Tabs – Mdc

CD, Sheet music, Poster

Do you like Us War 54? Share with your friends now
Tabs
MDC
US war #54

Intro

e-0--0--0--0-0------0--0--0--0-0--0-0-0-0--|
B-10-11-10-9-10-----10-11-10-9-10-5-5-9-10-|
G------------------------------------------|
D------------------------------------------|
A------------------------------------------|
E------------------------------------------| etc.


e------------------------|
B------------------------|
G------------------------|
D-7-7777-7777-7777777777-|
A-7-7777-7777-7777777777-|
E-5-5555-5555-5555555555-| X4


Main Riff

e--------------------|
B--------------------|
G------888-----8888--|
D-777--888-777-8888--|
A-777--666-777-6666--|
E-555------555-------|


Chorus

e-----------------------------------------|
B--------------------------------------0--|
G--------------------------------------2^-|
D-5-555555-5-6-5-33-5-3-55-66-2-22-222----|
A-5-555555-5-6-5-33-5-3-55-66-2-22-222----|
E-3-333333-3-4-3-11-3-1-33-44-0-00-000----|


Post Chorus
e----------------------|
B----------------------|
G-22-33-00-22----00----|
D-------------33----22-|
A----------------------|
E----------------------| X3

e---------------------|
B---------------------|
G---------------------|
D-33-00-22-00---------|
A-------------1-0-1-0-|
E---------------------|





Comments


Popular Mdc tabs & chords
John Wayne Was A Nazi Bass Tabs
I Was An Infant Chords
S.K.I.N.H.E.A.D Chords
Dick For Brains Tabs
John Wayne Was A Nazi Tabs
Millions Of Dead Cops Tabs
Multi Death Corporation Tabs
Nazis Shouldn't Drive Tabs
Slow, Stupid And Hungry Tabs
I Was An Infant Ukulele


Song lyrics



↑ Back to top | Tablatures and chords are parodies/interpretations of the original songs. You may use it for private study, scholarship, research or language learning purposes only
© 2014 AZChords.com Contact us | Privacy policy | DMCA | Add/correct tabs | Request tabs | Top 50 tabs