» » »

Nazis Shouldn't Drive Tabs (ver.1)

Artists:  A B C D E F G H I J K L M N O P Q R S T U V W X Y Z # 

Nazis Shouldn't Drive Tabs (ver.1)

Mdc
Rating:
0/5 (0 votes)

Tabs too difficult? Try these video lessons and learn fast.
                MDC - Nazis shouldn´t drive

Intro/Bridge:
e:----------------|----------------|------5b--5b----|
b:----------------|----------------|----5b--5b--5b--|
g:----------------|----------------|----------------|4x with different fills in the end
d:7---7--x5---5--x|5---5--x3---3--x|2---------------|
a:7---7--x5---5--x|5---5--x3---3--x|2---------------|
e:5---5--x3---3--x|3---3--x1---1--x|0---------------|

other fills are hard to make out, here are rough tabs
                     play as flageolets
e:-----------------||-----------12----------||-----------------||
b:-----------------||12-12----------12------||-----------------||
g:5b-5p3-----------||------12-----------12--||-----------------||
d:-------5353------||-----------------------||5b--(bend hard)--||
a:-----------5-----||-----------------------||-----------------||
e:-----------------||-----------------------||-----------------||

Chorus (4x):
e:----------------|----------------|----------------|----------------|
b:----------------|----------------|----------------|----------------|
g:7-7-7-7-5-5-2-2-|7-7-7-7-5-5-2-2-|7-7-7-7-5-5-2-2-|----------------|
d:7-7-7-7-5-5-2-2-|7-7-7-7-5-5-2-2-|7-7-7-7-5-5-2-2-|7-7-7-7-7-7-7-7-|
a:5-5-5-5-3-3-0-0-|5-5-5-5-3-3-0-0-|5-5-5-5-3-3-0-0-|7-7-7-7-7-7-7-7-|
e:----------------|----------------|----------------|5-5-5-5-5-5-5-5-|

Verse (4x):
e:----------------|
b:----------------|
g:----------------|
d:5-5-5-5-7-7-7-7-|
a:5-5-5-5-7-7-7-7-|
e:3-3-3-3-5-5-5-5-|

Outro:
e:--------------------------|
b:--------------------------|
g:----------------------9---|
d:----------------------9---|
a:3--33-3-5-33-3-5-5-7--7---|
e:--3-----------------------|
(play kind of a turn around down the Gm scale and end on G Powerchord)

Intro
(first half or the chorus Riff just with guitar)
Chorus
Verse
Chorus
Verse
Chorus
Bridge
Outro
            
Tabs too difficult? Try these video lessons and learn fast.




comments powered by Disqus
↑ Back to top | Tablatures and chords are parodies/interpretations of the original songs. You may use it for private study, scholarship, research or language learning purposes only