» » »

M Craft, Silver And Fire Tabs (ver.1)

Artists:  A B C D E F G H I J K L M N O P Q R S T U V W X Y Z # 

Silver And Fire Tabs (ver.1)

M Craft Tabs
Rating:
0/5 (0 votes)
Silver And Fire lessons Tabs too difficult? Try these video lessons and learn fast
                ----------------------------------------------------------------------------
                          Silver and Fire - M.Craft
----------------------------------------------------------------------------

Tuning: EADGBE


Intro (play twice)

E|------------------------------------------------------|
B|----6-5-6-5-6----6-5-6-5-6----6-5-6-5-6----6-5-6-5-6--|
G|------5---5--------5---5--------5---5--------5---5----|
D|----7---7---7----7---7---7----7---7---7----7---7---7--|
A|--5------------5------------5------------5------------|
E|------------------------------------------------------|

Verse

    Silver and fire...
E|------------------------------------------------------|
B|----6-5-6-5-6----6-5-6-5-6------5---5--------5---5----|
G|------5---5--------5---5------7-5-7-5-7----7-5-7-5-7--|
D|----7---7---7----7---7---7----5---5---5----5---5---5--|
A|--5------------5--------------------------------------|
E|----------------------------5------------5------------|

E|------5---5--------5---5------------------------------|
B|----3---3---3----3---3---3----6-5-6-5-6----6-5-6-8-6--|
G|------3---3--------3---3--------5---5--------5--------|
D|----3---3---3----3---3---3----7---7---7----7---7-5-7--|
A|---------------3------------5------------5------------|
E|--3----------------------------------------------5----|

    Deep in the waters...
E|--------------------------------------------------------|
B|----6-5-6-5-6----6-5-6-8---8------5---5--------5---5----|
G|------5---5--------5---7---7----7-5-7-5-7----7-5-7-5-7--|
D|----7---7---7----7---7---7------5---5---5----5---5---5--|
A|--5------------5-------7--------------------------------|
E|------------------------------5------------5------------|

E|------5---5--------5---5------------------------------|
B|----3---3---3----3---3---3----6-5-6-5-6----6-5-6-5-6--|
G|------3---3--------3---3--------5---5--------5---5----|
D|----3---3---3----3---3---3----7---7---7----7---7---7--|
A|---------------3------------5------------5------------|
E|--3---------------------------------------------------|


Chorus

    We're drifting...
E|------3---3--------3---3------------------------------|
B|----6---6---6----6---6---6----6-5-6-5-6----6-5-6-5-6--|
G|------3---3--------3---3--------5---5--------5---5----|
D|----5---5---5----5---5---5----7---7---7----7---7---7--|
A|--3------------3------------5------------5------------|
E|------------------------------------------------------|

E|------3---3--------3---3------------------------------|
B|----6---6---6----6---6---6------5---5--------5---3-5--|
G|------3---3--------3---3------5-5-5-5-5----5-5-5-3-5--|
D|----5---5---5----5---5---5----5---5---5----5---5------|
A|--3------------3---------------------------------3----|
E|----------------------------3------------3------------|

    Nothing else matters...
E|--------------------------------------------------------|
B|----6-5-6-5-6----6-5-6-8---8------5---5--------5---5----|
G|------5---5--------5---7---7----7-5-7-5-7----7-5-7-5-7--|
D|----7---7---7----7---7---7------5---5---5----5---5---5--|
A|--5------------5-------7--------------------------------|
E|------------------------------5------------5------------|

E|------5---5--------5---5------------------------------|
B|----3---3---3----3---3---3----6-5-6-5-6----6-5-6-5-6--|
G|------3---3--------3---3--------5---5--------5---5----|
D|----3---3---3----3---3---3----7---7---7----7---7---7--|
A|---------------3------------5------------5------------|
E|--3---------------------------------------------------|


Repeat as necessary


Final verse

    Nothing else matters...
E|--------------------------------------------------------|
B|----6-5-6-5-6----6-5-6-8---8------5---5--------5---5----|
G|------5---5--------5---7---7----7-5-7-5-7----7-5-7-5-7--|
D|----7---7---7----7---7---7------5---5---5----5---5---5--|
A|--5------------5-------7--------------------------------|
E|------------------------------5------------5------------|

E|------5---5--------5---5------------------------------|
B|----3---3---3----3---3---3----6-8-6-8-6----6-8-6-8-6--|
G|------3---3--------3---3--------0---0--------7---7----|
D|----3---3---3----3---3---3----7---7---7----8---8---8--|
A|---------------3------------8-------------------------|
E|--3--------------------------------------6------------|

   There's nothing quite as beautiful...
E|------5---5-----------------|
B|----3---3---3------5---5----|
G|------3---3------7-5-7-5-7--|
D|----3---3---3----5---5---5--|
A|----------------------------|
E|--3------------5------------|


Outro (play twice)
  
   ...as your life
E|---------------------------------------------------------|
B|----6-5-6-5-6----6-5-6-5-6----6-5-6-5-6----6-5-6-5-6--6--|
G|------5---5--------5---5--------5---5--------5---5----5--|
D|----7---7---7----7---7---7----7---7---7----7---7---7--7--|
A|--5------------5------------5------------5------------5--|
E|---------------------------------------------------------|



============================================================================
            
Submit corrections

comments powered by Disqus
↑ Back to top | M Craft Tabs for Silver And Fire. Lyrics for acoustic guitar and electric guitar. Tablatures and chords are parodies/interpretations of the original songs. You may use it for private study, scholarship, research or language learning purposes only