>
 >
Last Dance

Last Dance Guitar Tabs

Mclachlan Sarah - Last Dance chords, tabs, tablatures, lyrics

Guitar lessons | Add/correct | Request | Top 50 tabs Artists:  A B C D E F G H I J K L M N O P Q R S T U V W X Y Z 0-9

Last Dance Guitar Tabs – Mclachlan Sarah

CD, Sheet music, Poster

Do you like Last Dance? Share with your friends now
Tabs
e|------0-----------------0---------------0----7---3------0----0------------
B|---3------1---------3-------1--------3-----------0---0-----------3--------
G|--------------0-----------------2----2-----------0---0--------------------
D|--------------2-----------------2----2-------------------------------0---0
A|----------3-----------------0----------------------------------------2---2
E|---------------------------------------------0---------------3------------

e|--0---3----------0---3----------0---7---3------0--1--------------0--------
B|-------------3--------------3-----------0---0------------------------1----
G|---------0---0----------2---2-----------0---0-----------------0------0----
D|---------2---2----------2---2-------------------------0---3----------2----
A|------3--------------0-------------------------------------------3--------
E|------------------------------------0-------------3-------3---------------

e|---------0--------------0--------------------------0-----------------0----
B|-------------1-------------3--1---1------0--------------1----------------1
G|-----0-------2------0------2--2----------0----0---------0--------0-------2
D|--3--------------3------0-------------0-----------------2----3------------
A|---------------------------------------------------3----------------------
E|---------1------------------------3----------------------------------1----

e|-----------0----3---1---0--------------------0----------------------------
B|---------------------------3--1--1-----0--1----1--0-------------1----3--0-
G|-------0------------2------2-----------0--------------------2------2----0-
D|----3------0------------------------0-----------------3--3---------3----0-
A|--------------------------------------------------5-----------------------
E|---------------------------------3------------------------------1-------3-


e|-----------------------3---------0---1---1------1-------------------------
B|1-------------------------3--5--------------3---3----1---1-------3--0----1
G|--2--------------5--------4--------------2------2-------------2----------0
D|--0----3----3-------3-----5------0-----------------------3-------------0--
A|-------5----5-------------------------------------------------------------
E|--------------------------------------------------------------------3-----

e|-----------0--------------0-------------0----7----3-------0---0-----------
B|--1----3------1-------3------1------3-------------0---0-----------3-------
G|--0---------------0---0---------2---2-------------0---0--------------0--0-
D|--2---------------2---2---------2---2--------------------------------0--0-
A|--3-----------3--------------0--------------------------------------------
E|---------------------------------------------0----------------3-----------

e|---0----3-------------0---3------------0---7----3-----0-------------------
B|-----------------3------------0----3---------------------3----1-----------
G|------------0----0------------0--------------------------2----0------0----
D|------------2----2---------------------------------------3----3---3-------
A|--------3-----------------------------------------------------------------
E|--------------------------0----------------0------------------------------





Comments


Popular Mclachlan Sarah tabs & chords
Ice Bass Tabs
Adia Chords
Angel 2 Chords
Angel 2 Chords
Do What You Have To Do Chords
Train Wreck Chords
Elsewhere 1 Tabs
Good Enough Tabs
Plenty Live Intro Tabs
Vox Tabs


Song lyrics



↑ Back to top | Tablatures and chords are parodies/interpretations of the original songs. You may use it for private study, scholarship, research or language learning purposes only
© 2014 AZChords.com Contact us | Privacy policy | DMCA | Add/correct tabs | Request tabs | Top 50 tabs