» » »

M Chedid, Onde Sensuelle Bass tabs (ver.1)

Artists:  A B C D E F G H I J K L M N O P Q R S T U V W X Y Z # 

Onde Sensuelle Bass tabs (ver.1)

M Chedid Tabs
 Rating:
4/5 (4 votes)
Onde Sensuelle lessons Tabs too difficult? Try these video lessons and learn fast
1
                		  Listen to the tape.

Strings: E ,A ,D ,G 

Symbols explanations:
  H: hammer on  P: pull off
  +: slap       .: pop
  \: slide up   /: slide down
  --x~~x~~x: triplets



Intro (repeat two times)

|  q.  e  e  e  q  e  e  q  q  q  q  q
G ------------------------------------
D -----------------6--6--6--5~~5~~5--5
A --4--4--4--4--6---------------------
E ------------------------------------



Verse

|  q.  e  e  e  q  e  e  q  q  q  q  q
G ------------------------------------
D -----------------6--6--6--5~~5~~5--5
A --4--4--4--4--6---------------------		x3
E ------------------------------------

|   w    h. e. e.  e  e  q  q  q  q  q 
G ------------------------------------
D -----------------6--6--6--5~~5~~5--5
A --4-----6--6-6----------------------
E ------------------------------------



Chorus (repeat two times)

|  q.  e e e q  s s s s q.e  h   q. e q. e q. e.e. e. q.
G -----------------------------|-------------------8\12
D -3.--3-3-5-6.-6-6-3-6-5-5----|-3--5-6--7-8--9-10-----
A ---------------------------3-|-----------------------	
E -----------------------------|-----------------------	
		very fast

Bridge
  e   e  e  e  e  e  e  e  e  e  e  e  e  e  e  e
G -------------------------------------------------
D -11----11----11----11----10----10----10----10----
A ----11----11----11----11----10----10----10----10-
E -------------------------------------------------
		
            
Submit corrections

comments powered by Disqus
↑ Back to top | M Chedid Bass for Onde Sensuelle. Lyrics for acoustic guitar and electric guitar. 1 Tablatures and chords are parodies/interpretations of the original songs. You may use it for private study, scholarship, research or language learning purposes only