» » »

Mama Sam Bass tabs (ver.1)

Artists:  A B C D E F G H I J K L M N O P Q R S T U V W X Y Z # 

Mama Sam Bass tabs (ver.1)

M Chedid
Rating:
0/5 (0 votes)

Hard to play? Try these video lessons and learn fast.
                
easy to play, but fun.

intro:

|-----5-6-7---------2-3-4--------|
|--5-------------2---------------|3 times
|--------------------------------|
|--------------------------------|

verse:

|-----5-6-7---------2-3-4--------|
|--5-------------2---------------|
|--------------------------------|
|--------------------------------|
repeat over and over with some variations at the end like: --42---
                                                           ----4- 

chorus:
 
|---5-6-7/-----2-3-4-----------------------|
|-5----------2------------3-4-5/-----5-6-7-|2 times
|-----------------------3----------5-------|
|------------------------------------------|

that's it.....
            
Hard to play? Try these video lessons and learn fast. | Correct




comments powered by Disqus
↑ Back to top | Tablatures and chords are parodies/interpretations of the original songs. You may use it for private study, scholarship, research or language learning purposes only