» » »

M Chedid, Je Dis Aime Bass tabs (ver.1)

Artists:  A B C D E F G H I J K L M N O P Q R S T U V W X Y Z # 

Je Dis Aime Bass tabs (ver.1)

M Chedid Tabs
 Rating:
4/5 (4 votes)
Je Dis Aime lessons Tabs too difficult? Try these video lessons and learn fast
                Classical tuning.
Quite easy


Part 1
G |-------------------------|-----------------------|
D |-------------------------|-----------------------|
A |--------0-0---2-2--------|--------0--0--2--2\-5--|
E |--2-2---------------4-4--|--2-2------------------|

Part 1+
G |--------------------------------|-------------------|
D |--------------------------------|-------------------|
A |--------0-0---2-2---------------|-----0-0--2-2--5-5-|
E |--2-2---------------4-4--4/5/4/-|-2-2---------------|
      				
Part 2                                     
G |-------------------|------------|--------------|
D |--2--0-------------|------------|--------------|
A |--------0----------|------------|--------------|   x2
E |------------4\5/4\-|-2---2-3-~4-|--2---2-3-~4--|	

G |----------|
D |--2--0----|
A |--------4-|
E |----------|
     +  +    

Part 4
G |--4---4/6/4------------------|
D |-------------7---7-6---6/5/4-|
A |-----------------------------|   x3
E |-----------------------------|    

G |------------------------------|
D |------------------------------|
A |-2222--0000-------------------| x6
E |-------------4444---4/3/2222--|	     


Intro 	Part1 x2
Verse1 	Part1+ x2
Chorus 	Part2
Interlude 	Part1
Verse2  	Part1+ x2
Chorus 	Part2
Bridge    	Part4 (Pour le dehors, le dedans…) 
End 		Part2 



Part4 Variation :
G |-------------------------------------------|
D |----0--------------------------------------|
A |-2-2-2222-----4-----------2----------------| 
E |-----------5-5-5555----4-4-444-4/3/2-2222--|
            
Submit corrections

comments powered by Disqus
↑ Back to top | M Chedid Bass for Je Dis Aime. Lyrics for acoustic guitar and electric guitar. Tablatures and chords are parodies/interpretations of the original songs. You may use it for private study, scholarship, research or language learning purposes only