» » »

M Chedid, Faut Oublier Bass tabs (ver.1)

Artists:  A B C D E F G H I J K L M N O P Q R S T U V W X Y Z # 

Faut Oublier Bass tabs (ver.1)

M Chedid Tabs
 Rating:
4/5 (4 votes)
Faut Oublier lessons Tabs too difficult? Try these video lessons and learn fast
                Classical tuning.

To play on a fretless or acoustical bass. 




~: tremolo
\: slide down
/: slide up


Intro

G |--------1/-4--|
D |--2--1--------|
A |--------------|	x2
E |--------------|


Verse 1

G |--------------~1-----~4--|--------------~1---~4---~6-|---~1---~4----~6--|
D |--~2---~1----1------/4---|---~2----~1---1---/4---/6--|--1----/4----/6---|
A |------2------------------|--2-----2------------------|------------------|
E |-------------------------|---------------------------|------------------|


|
G |------------~1----~4--|--------------~1--~4---~6----~15--|--~1---~4-----~6-----~15--|
D |-~2---~1---1-----/4---|--~2----~1---1---/4---/6---/14----|-1----/4-----/6----/14----|
A |-----2----------------|-2-----2--------------------------|--------------------------|
E |----------------------|----------------------------------|--------------------------|


                                                                                
Chorus

G |------------/8-----------/9-|----------/8-----------------|
D |----------/6-----------/6---|--------/8-----------4/6-~4--|
A |-----/4-----------/4--------|---/6-----------/4-----------|
E |-11\4-----------/4----------|-/4-----------/4-------------|
                                                                                

G |------------/8-----------/9--|---------/8------------|
D |----------/6-----------/6----|-------/8--------------|
A |------/4-----------/4--------|---/6-----------/4--/6-|
E |-----4-----------/4----------|-/4--------------------|
                                              

Verse2


G |--------------~1------~4---|--------------~1---~4---~6-|
D |--~2---~1-----1------/4----|---~2-----~1--1---/4---/6--|
A |-------2-------------------|---2------2----------------|
E |---------------------------|---------------------------|

G |--------------~1--~4---~6---~15---|--~1----~4----~6---/~15---|
D |--~2----~1---1---/4---/6---/14----|-1-----/4----/6------------|
A |-2-----2--------------------------|--------------------------|
E |----------------------------------|--------------------------|


Then Chorus till the end.
            
Submit corrections

comments powered by Disqus
↑ Back to top | M Chedid Bass for Faut Oublier. Lyrics for acoustic guitar and electric guitar. Tablatures and chords are parodies/interpretations of the original songs. You may use it for private study, scholarship, research or language learning purposes only