» » »

Juniors Farm Bass tabs (ver.1)

Artists:  A B C D E F G H I J K L M N O P Q R S T U V W X Y Z # 

Juniors Farm Bass tabs (ver.1)

Mccartney Paul
Rating:
0/5 (0 votes)

Hard to play? Try these video lessons and learn fast.
                ---------------------------------------------------


G-----------------|---------------|---------------------------------|
D-----------------|---------------|---------------------------------|
A-----------3-5---|---------3-5---|---------------------------------|
E---3---1-1-----3-|-3---1-1-----3-|-3-3-3-3-3-3-3-3-3-3-3-3-3-3-3-1-|


G-----------------------------------|---------------------------------|
D-----------------------------------|---------------------------------|
A-----------------------------------|---------------------------------|
E---3-3-3-3-3-3-3-3-3-3-3-3-3-3-3-1-|-3-3-3-3-3-3-3-3-3-3-3-3-3-3-3-1-|


G-----------------------------------|----------------|
D-----------------------------------|----------------|
A-----------------------------------|----------------|
E---3-3-3-3-3-3-3-3-3-3-3-3-3-3-3-3-|1-1-1-1-1-1-1-1-|


G-----------------------------------|---------------------------------|
D-----------------------------------|---------------------------------|
A-----------------------------------|---------------------------------|
E---0-0-0-0-0-0-0-0-0-0-0-0-0-0-0-1-|-3-3-3-3-3-3-3-3-3-3-3-3-3-3-3-1-|


G-----------------------------------|----------------|
D-----------------------------------|----------------|
A-----------------------------------|----------------|
E---3-3-3-3-3-3-3-3-3-3-3-3-3-3-3-3-|1-1-1-1-1-1-1-1-|


G-----------------------------------|---------------------------------|
D-----------------------------------|---------------------------------|
A-----------------------------------|---------------------------------|
E---0-0-0-0-0-0-0-0-0-0-0-0-0-0-0-1-|-3-3-3-3-3-3-3-3-3-3-3-3-3-3-3-3-|


G-------------------|-------------------------------------------------|
D-------------------|-------------------------------------------------|
A-------------------|-------------------------------------------------|
E---1-1-1-1-1-1-1-1-|-3-3-3-3-3-3-3-1-3-3-3-3-3-3-3-3-3-3-3-3-3-3-3-3-|


G-------------------|-------------------------------------------------|
D-------------------|-------------------------------------------------|
A-------------------|-------------------------------------------------|
E---1-1-1-1-1-1-1-1-|-3-3-3-3-3-3-3-1-3-3-3-3-3-3-3-3-3-3-3-3-3-3-3-3-|


G-------------------|-------------------------------------------------|
D-------------------|-------------------------------------------------|
A-------------------|-------------------------------------------------|
E---1-1-1-1-1-1-1-1-|-3-3-3-3-3-3-3-1-3-3-3-3-3-3-3-3-3-3-3-3-3-3-3-3-|


G-------------------|-------------------------------------------------|
D-------------------|-------------------------------------------------|
A-------------------|-------------------------------------------------|
E---1-1-1-1-1-1-1-1-|-3-3-3-3-3-3-3-1-3-3-3-3-3-3-3-3-3-3-3-3-3-3-3-3-|


G-----------------------------------|
D-----------------------------------|
A-----------------------------------|
E---3-3-3-3-3-3-3-3-3-3-3-3-3-3-3-1-|


G-------------------|---------------------------------|
D-------------------|---------------------------------|
A-------------------|---------------------------------|
E---1-1-1-1-1-1-1-1-|-0-0-0-0-0-0-0-0-0-0-0-0-0-0-0-1-|


G-----------------------------------|---------------------------------|
D-----------------------------------|---------------------------------|
A-----------------------------------|---------------------------------|
E---3-3-3-3-3-3-3-3-3-3-3-3-3-3-3-1-|-3-3-3-3-3-3-3-3-3-3-3-3-3-3-3-1-|


G-------------------|---------------------------------|
D-------------------|---------------------------------|
A-------------------|---------------------------------|
E---1-1-1-1-1-1-1-1-|-0-0-0-0-0-0-0-0-0-0-0-0-0-0-0-1-|


G-----------------------------------|
D-----------------------------------|
A-----------------------------------|
E---3-3-3-3-3-3-3-3-3-3-3-3-3-3-3-3-|


G-------------------|-------------------------------------------------|
D-------------------|-------------------------------------------------|
A-------------------|-------------------------------------------------|
E---1-1-1-1-1-1-1-1-|-3-3-3-3-3-3-3-1-3-3-3-3-3-3-3-3-3-3-3-3-3-3-3-3-|


G-------------------|---------------------------------|
D-------------------|---------------------------------|
A-------------------|---------------------------------|
E---1-1-1-1-1-1-1-1-|-3-3-3-3-3-3-3-3-3-3-3-3-3-3-3-3-|


G-------------------|-------------------------------------------------|
D-------------------|-------------------------------------------------|
A-------------------|-------------------------------------------------|
E---1-1-1-1-1-1-1-1-|-3-3-3-3-3-3-3-1-3-3-3-3-3-3-3-3-3-3-3-3-3-3-3-3-|


G-------------------|-----------------|-----------------|-----------------|
D-------------------|-----------------|-----------------|-----------------|
A-------------------|-----------------|-----------------|-----------------|
E---1-1-1-1-1-1-1-1-|-3-3-3-3-3-3-3-3-|-1-1-1-1-1-1-1-1-|-3-3-3-3-3-3-3-3-|


G-------------------|---|-------------7-|---------------------------|
D-------------------|---|-------3-2-----|---------------------------|
A-------------------|---|-----------3---|-7---5---7---5---3---2-----|
E---1-1-1-1-1-1-1-1-|-0-|-3-3-3---------|-------------------------5-|


G-----------------------------------------|
D-----------------------------------------|
A---7---5---7---5---3---2-------3---5-----|
E---------------------------5-----------3-|
            
Hard to play? Try these video lessons and learn fast. | Correct




comments powered by Disqus
↑ Back to top | Tablatures and chords are parodies/interpretations of the original songs. You may use it for private study, scholarship, research or language learning purposes only