» » »

Mc5, Kick Out The Jams Bass tabs (ver.1)

Artists:  A B C D E F G H I J K L M N O P Q R S T U V W X Y Z # 

Kick Out The Jams Bass tabs (ver.1)

Mc5 Tabs
 Rating:
4/5 (4 votes)
Kick Out The Jams lessons Tabs too difficult? Try these video lessons and learn fast
                KICK OUT THE JAMS (Bassline)
As recorded by MC5
(From the 1969 Album KICK OUT THE JAMS)


 Words and Music by Dredrick D. Smith, Wayne Kramer, Denis Tomich, Robert Derminer and Michael Davis

 

Gtr I (E A D G) - 'Standard'


 Intro
  Q=148
 4/4
  Gtr I
  W          W          H    E E E e
|----------:----------:--------------|
|----------:----------:--------------|
|----------:----------:------5-5-5-7-|
|----------:----------:--------------|


  W          W          W
|----------|----------|------|
|----------|----------|------|
|----------|----------|------|
|----------|----------|------|


  H      H        E E E E +Q   E S S   a E E E E +E  E E E
|--------------||--------------------|---------------------|
|-7/-----------||-----5-7-(7)--7-5h7-|-------5-7-(7)-7-----|
|-5/----13\----||-7-7----------------|-5h7-7-----------5-0-|
|--------------||--------------------|---------------------|


                                           1st Verse
  E E E E +E  E E E   E E E E +E  E E E     E E E E +E  E E E  8x
|-------------------|-------------------||---------------------||
|-----5-7-(7)-7-----|-----5-7-(7)-7-----||o-----5-7-(7)-7-----o||
|-7-7-----------5-0-|-7-7-----------5-0-||o-7-7-----------5-0-o||
|-------------------|-------------------||---------------------||


   Pre-Chorus              Chorus
    E E E E E E a S S E  4x E E a  E  E  +H        +H      +E  E Q
||----------7-7-6h7p6----||-9-9-9h11-11-(11)----|-(11)----(11)-------|
||o-----5-5-----------7-o||-7-7-7--9--9--(9)----|--(9)-----(9)-0-9S==|
||o-7-7-----------------o||---------------------|--------------------|
||-----------------------||---------------------|--------------------|


  Q  Q  E. S E E   +H.      E E   Q  Q  Q  E E
|----------------|--------------|--------------|
|-0--0--0--0-0---|----------2-0-|-4--4--4--4-0-|
|----------0-0---|------------0-|--------------|
|--------------0-|-(0)----------|--------------|


  q  Q  Q   Q       E E E E +E  E S S S S   E E E E +E  E S S S S
|---------------||------------------------|------------------------||
|-7--------10\--||o-----5-7-(7)-7-5h7-5-x-|-----5-7-(7)-7-5h7-5-x-o||
|---------------||o-7-7-------------------|-7-7-------------------o||
|---------------||------------------------|------------------------||


   2nd Verse                     Pre-Chorus              Chorus
    E E E E +E  E S S S S  8x     E E E E E E a S S E  4x E E a  E  E  +H
||-------------------------||-||----------7-7-6h7p6----||-9-9-9h11-11-(11)----|
||o-----5-7-(7)-7-5h7-5-x-o||-||o-----5-5-----------7-o||-7-7-7--9--9--(9)----|
||o-7-7-------------------o||-||o-7-7-----------------o||---------------------|
||-------------------------||-||-----------------------||---------------------|


   +H      +E  E Q    Q  Q  E. S E E   +H.      E E
|-(11)----(11)------|----------------|--------------|
|--(9)-----(9)-0-9S=|=0--0--0--0-0---|----------2-0-|
|-------------------|----------0-0---|------------0-|
|-------------------|--------------0-|-(0)----------|


                                  Guitar Solo
  Q  Q  Q  E E   q  Q  Q   Q       Q  E E Q  Q   4x
|--------------|---------------||-------0-7--0---||
|-4--4--4--4-0-|-7--------10\--||o------0-7--0--o||
|--------------|---------------||o-7--7---------o||
|--------------|---------------||--0--0----------||


  Q  E S S +Q   S S E   Q  E a E +Q   S S E   Q  E E +E  E S S S S
|-------------------0-|---------------------|----------------------|
|------5h7-(7)--5-0-0-|----5-5h7-(7)--5-0-0-|----5-7-(7)-7-5h7-0-0-|
|-7--7----------------|-7-------------------|-7------------------0-|
|---------------------|---------------------|----------------------|


  Q  E E +E  S S E E   Q  E E +S  S E +S  S E   E E E E +E  E E E
|--------------------|------------------------|-------------------|
|----5-7-(7)---------|----7-------------------|-----5-------------|
|-7----------5-5-5-0-|-7----4-(4)-0-5-(5)-0-6-|-7-7---0-(0)-0-5-6-|
|--------------------|------------------------|-------------------|


  E E S E. E E E E   E E Q  E E E E   E. S Q  E E E E
|------------------|----------------|-----------------|
|-----5------------|---7------------|-----------------|
|-7-7---5--4-7-----|-7-7----------5-|-7-------------5-|
|--------------5-7-|-----0--5-6-7---|----0-0--5-6-7---|


  Q  Q  E E E E   Q  E. S E. S S E.   Q  E E +Q   S S E
|---------------|-------------------|--------------------|
|---------------|-------------------|----5-7-(7)--5h7p0--|
|-7-----------5-|-7--7--0-5--0-5-0--|-7------------------|
|-0--0--5-6-7---|-0-----------------|--------------------|


  E E E E Q  E E   Q  a Q  a Q  a Q    Q  a Q  a Q    Q
|----------------|-------------------|---------------------||
|-----5-7--------|----5h7--5h7--5h7--|----5h7--5h7--/12\---||
|-7-7-----0--4-5-|-7-----------------|-7-------------------||
|----------------|-------------------|---------------------||


 3rd Verse
  Q  E E +Q   a E S S   E E E E Q  E E   Q  E E E E E E
|---------------------|----------------|----------------|
|----5-7-(7)--5h7-5h7-|-----5-7--------|----5-7---------|
|-7-------------------|-7-7-----0--4-5-|-7------0-0-4-5-|
|---------------------|----------------|----------------|


  E E E E S E. E E   Q  S S E +E  E E E   Q  S S E +E  E E E
|------------------|--------------------|--------------------|
|-----5-7----------|----5p0-------------|----5p0-------------|
|-7-7-----4-4--5-0-|-7------5-(5)-0-5p0-|-7------0-(0)-0-4-5-|
|------------------|--------------------|--------------------|


                                         Pre-Chorus
  Q  E E +E  E E E   E E E E +E  E E E    E E E E E E S S S S
|------------------|-------------------||---------------------|
|------------------|-----5-------------||-----5-5-7-7-5h7-7-5-|
|-7--5-------------|-7-7---0-(0)-0-4-5-||-7-7-----------------|
|------0-(0)-0-4s5-|-------------------||---------------------|


  E E E E E E S S S S   E E E E E E S S E   E E E E E E S S e
|---------------------|---------7-7-7p6---|---------9-9-9-7---||
|-----5-5-7-7-5h7-7-5-|-----5-5---------7-|-----5-x---------9-||
|-7-7-----------------|-7-7---------------|-7-7---------------||
|---------------------|-------------------|-------------------||


 Chorus
  E E a  E  E  +H        +H      +E  E Q    Q  Q  E. S E E
|-9-9-9h11-11-(11)----|-(11)----(11)------|-----------------|
|-7-7-7--9--9--(9)----|--(9)-----(9)-0-9S=|=0--0--0---------|
|---------------------|-------------------|----------0-0----|
|---------------------|-------------------|--------------0--|


  +H.      E E   Q  E.S S S E +E  S S   Q  Q  H
|--------------|----------------------|------------||
|--------------|-4--4p0-4p0-4-(4)-0-0-|-6----------||
|----------7p0-|----------------------|------------||
|-(0)------0---|----------------------|------------||


 Outro
  TP
  W          +W           +W
|----------:------------:--------*|
|----------:------------:--------*|
|----------:------------:--------*|
|-0--------:-(0)--------:-(0)----*|






Duration Legend
---------------
W - whole; H - half; Q - quarter; E - 8th; S - 16th; T - 32nd; X - 64th; a - acciaccatura
+ - note tied to previous; . - note dotted; .. - note double dotted
Uncapitalized letters represent notes that are staccato (1/2 duration)
Irregular groupings are notated above the duration line
Duration letters will always appear directly above the note/fret number it represents the
duration for.  Duration letters with no fret number below them represent rests.  Multi-
bar rests are notated in the form Wxn, where n is the number of bars to rest for.  Low
melody durations appear below the staff

Tablature Legend
----------------
 h   - hammer-on
 p   - pull-off
 b   - bend
 pb  - pre-bend
 r   - bend release (if no number after the r, then release immediately)
 /\  - slide into or out of (from/to "nowhere")
 s   - legato slide
 S   - shift slide
<n> - natural harmonic
[n]  - artificial harmonic
n(n) - tapped harmonic
 ~   - vibrato
 tr  - trill
 T   - tap
 TP  - trem. picking
 PM  - palm muting
\n/  - tremolo bar dip; n = amount to dip
 \n  - tremolo bar down
 n/  - tremolo bar up
/n\  - tremolo bar inverted dip
 =   - hold bend; also acts as connecting device for hammers/pulls
 <> - volume swell (louder/softer)
 x   - on rhythm slash represents muted slash
 o   - on rhythm slash represents single note slash

Misc Legend
-----------
 |  - bar
||  - double bar
||o - repeat start
o|| - repeat end
*|  - double bar (ending)
 :  - bar (freetime)
 $  - Segno
 &  - Coda
Tempo markers - <E/E./Q/Q./H/H.> = BPM(8/16=s8/s16), where s8 = swing 8ths, s16 = swing 16ths
            
Submit corrections

comments powered by Disqus
↑ Back to top | Mc5 Bass for Kick Out The Jams. Lyrics for acoustic guitar and electric guitar. Tablatures and chords are parodies/interpretations of the original songs. You may use it for private study, scholarship, research or language learning purposes only