» » »

Synestheisa Chords (ver.3)

Artists:  A B C D E F G H I J K L M N O P Q R S T U V W X Y Z # 

Synestheisa Chords (ver.3)

Mayonnaise
Rating:
5/5 (1 vote)

Hard to play? Try these video lessons and learn fast.
                Band / Artist : Mayonnaise      
Song title : Synesthesia
Album : Unknown

Kapa ko lang toh.. pero mas mejo ok nman kesa dun sa iba. :)
pa-rate nman po. thanks :D :D


Intro:
  C            G          Am                      F
e|-3--1--0--------3--1--0----------------------------------|
B|----------3--------------1---1--3--5--3--1--3--1--0--1---|
G|---------------------------------------------------------|
D|---------------------------------------------------------|
A|---------------------------------------------------------|
E|---------------------------------------------------------|

  C            G          Am                      F
e|-3--1--0--------3--1--0-------------------------------|
B|----------3--------------1---1--3--5--3--1--3--0--1---|
G|------------------------------------------------------|
D|------------------------------------------------------|
A|------------------------------------------------------|
E|------------------------------------------------------|



Intro:
 
C  G   Am  F 2x


Verse 1

C    G    Am
Save your smile

G    Am    F
Everything fades through time

C    G    Am
Im lost for words

G    Am    F
Endlessly waiting for you

C    G    Am
Stay with me

G    Am    F
Yes i know, this cannot be..

C    G    Am
As Morning Comes,

G    Am    F                      G        C-
I say good bye to you when im done.. to the Sun


CHORUS:

C                  G                  Am
Because ive been waiting for you, waiting for this..

F                      C 
Dream to come true, just to be with you.

G                Am
And if die, remember this line..

F                      C   G    Am/F/G
"Im always here, guarding you life..........



VERSE 2 same chords

I am yours
Im completely trapped in your soul
Dazed and Confused
Swept away with your own words.
Youre my star
Invincible,haunting and far
Grace under fire
Someone is building my hurt, in my heart.


REPEAT CHORUS

VERSE 3 same chords

Slowly falling into you
im obsessed with the fact that im with you
I can't breathe without you.

REPEAT CHORUS

Ending:

ohhhhhhoooo....ohoh

 C  G   Am  F 2x
            
Hard to play? Try these video lessons and learn fast. | Correct




comments powered by Disqus
↑ Back to top | Tablatures and chords are parodies/interpretations of the original songs. You may use it for private study, scholarship, research or language learning purposes only