» » »

Chainsaw Gutsfuck Tabs (ver.3)

Artists:  A B C D E F G H I J K L M N O P Q R S T U V W X Y Z # 

Chainsaw Gutsfuck Tabs (ver.3)

Mayhem
Rating:
5/5 (1 vote)

Tabs too difficult? Try these video lessons and learn fast.
                Mayhem-"Chainsaw Gutf**k"

This song is pretty easy. Its mainly just a bunch of riffs played
in a certain order. If you listen to the song while you play it you
can learn it easier. I put the song in the correct order. Also the
WHOLE song is played on high distortion. Enjoy.


~ = let ring
x = palm mute
/ = slide
p = pull off


 (pick this part lightly)
|-----------------------------------------|-----|
|-----------------------------------------|-----|
|-----------------------------------------|-----|
|-----------------------------------------|-----|
|-----------------------------------------|-----|
|-03--2~----03--2~----03--2~----03--2~----|-0-0-|
                                            x x
 (get heavier here)
|-----------------------------------------|
|-----------------------------------------|
|-----------------------------------------|
|-----------------------------------------| {3X}
|-----------------------------------------|
|-03--2~----03--2~----03--2~----03--2~----|


 (Riff 1)
|--------------------|
|--------------------|
|--------------------|
|--------------------| {8X}
|-3--3-3--3-3/4-4/5--|
|-1--1-1--1-1/2-2/3--|


 (Riff2)
|--------------------|
|--------------------|
|--------------------|
|--------------------| {4X}
|---2-2-3-2-4p3------|
|---0-0-1-0-----4p3--|


then repeat:
Riff 1 = 4X
Riff 2 = 4X
Riff 1 = 4X
Riff 2 = 4X


|---------------------|
|---------------------|
|---------------------|
|---------------------|
|--2~------2~---------|
|--0~------0~---------|


then repeat:
Riff 2 = 3X


|--------------------|
|-----------8p7------|
|---------------8p7--|
|--------------------| 
|---2-2-3-2----------|
|---0-0-1-0----------|


then repeat:
Riff 2 = 4X
Riff 1 = 4X
Riff 2 = 4X


|----------------------|
|----------------------|
|----------------------|
|----------------------|
|--2~-----3~-----------|
|--0~-----1~-----------|


Solo

|----------|------|  The solo is bascly
|----------|------|  just a bunch of tremolo
|----------|------|  picking. Its very fast,
|--------2-|----2-|  but its short and easy 
|-0000000--|-000--|
|----------|------|
           {_23X__}


then repeat:
Riff 2 = 4X
Riff 1 = 2X
Riff 2 = 4X


|---------------||
|---------------||
|---------------||
|---------------|| END
|--2~-----------||
|--0~-----------||
            
Tabs too difficult? Try these video lessons and learn fast.




comments powered by Disqus
↑ Back to top | Tablatures and chords are parodies/interpretations of the original songs. You may use it for private study, scholarship, research or language learning purposes only