» » »

Mayday, One More Pill To Kill The Pain Bass tabs (ver.1)

Artists:  A B C D E F G H I J K L M N O P Q R S T U V W X Y Z # 

One More Pill To Kill The Pain Bass tabs (ver.1)

Mayday Tabs
Rating:
0/5 (0 votes)
One More Pill To Kill The Pain lessons Tabs too difficult? Try these video lessons and learn fast
                Bassist: Alexander Milov
Tuning: Standart tuning

p.m. Palm muting
h    Hammer-on
p    Pull-off
\    Slide down
*    Let ring

Intro:
G||-------------------------------------2-0--------|
D||-----3-2-h3-------3-2-h3-------3-2-3-----3p2p0--|
A||-5------------3------------1--------------------|
E||------------------------------------------------|

Verse 1:
G||---------------------|
D||-----------------1---|
A||-5*--5\3*--3\1*----1-|
E||---------------------|

Verse 2:
G||------------------------------------------------|
D||---------6p5---------4p3---------2p1-3333-------|
A||-55-55555----33-33333----11-11111---------3333--|
E||------------------------------------------------|

Chorus:
G||---------------------------------------------|
D||------------33333333-------------------------|
A||-55555555-0----------0-11111111-0-33333333-0-|
E||---------------------------------------------|

Solo:
G||---------------------------2-0-------------2p0-2p0------|
D||---2-3----3-2---2-3---3-2-------3-2-0-2-3---------------|                      
A||-5-----3------------1-----------------------------------|
E||--------------------------------------------------------|

Intro   x1 p.m.
Intro   x3
Verse 1 x2
Verse 2 x4 thats when he starts singing
Intro   x2
Verse 1 x2
Verse 2 x2
Chorus  x4
Intro   x2
Verse 1 x2
Verse 2 x2
Chorus  x4
Solo    x4 alone x2 than with p.m. guitar 2x
Chorus  x4
Intro   x2 fade out on the 2nd!!

		Enjoy!!



						by Alexander Milov  (c) 2002
            

comments powered by Disqus
↑ Back to top | Mayday Bass for One More Pill To Kill The Pain. Lyrics for acoustic guitar and electric guitar. Tablatures and chords are parodies/interpretations of the original songs. You may use it for private study, scholarship, research or language learning purposes only