» » »

Mayday, Leave Us Alone Tabs (ver.1)

Artists:  A B C D E F G H I J K L M N O P Q R S T U V W X Y Z # 

Leave Us Alone Tabs (ver.1)

Mayday Tabs
Rating:
0/5 (0 votes)
Leave Us Alone lessons Tabs too difficult? Try these video lessons and learn fast
                


        

                 Leave us alone tabs (av: Stig-Ove)

         Verse
       |-----------------------------|-----------------------------|
       |-----------------------------|-----------------------------|
       |-6---------------------------|-6---------------------------|  
       |-6-(x6)-6------4------6------|-6-(x6)-6------8------4------|  (x2)
       |-4------6-(x6)-4-(x6)-6-(x6)-|-4------6-(x6)-8-(x6)-4-(x6)-|
       |--------4------2------4------|--------4------6------2------|

                                     |-----------------------------|
                                      Play this part one more time  
                                      in the end of the 2nd verse
       
        Chorus
       |-----------------------------|
       |-----------------------------|
       |-6---------------------------|
       |-6-(x6)-6------8------4------|  (x4)
       |-4------6-(x6)-8-(x6)-4-(x6)-|
       |--------4------6------2------|


        Bridge
       |-----------------------------|--------------------------|
       |-----------------------------|--------------------------|
       |-6---------------------------|-6------------------------|
       |-6------6------4------8-6----|-6------6------8------4---|  (x2)
       |-4------6------4------8-6----|-4------6------8------4---|
       |--------4------2------6-4----|--------4------6------2---|

       Verse x2
       Chorus x4
       Verse x2     Remember this part....
       Chorus x4   
       Bridge x2   
       Chorus x4 

                   Enjoy! From us to you. 

                   From: Mayday them selves.
            

comments powered by Disqus
↑ Back to top | Mayday Tabs for Leave Us Alone. Lyrics for acoustic guitar and electric guitar. Tablatures and chords are parodies/interpretations of the original songs. You may use it for private study, scholarship, research or language learning purposes only