» » »

Mayday, Annonymous Mistake Bass tabs (ver.1)

Artists:  A B C D E F G H I J K L M N O P Q R S T U V W X Y Z # 

Annonymous Mistake Bass tabs (ver.1)

Mayday Tabs
 Rating:
4/5 (4 votes)
Annonymous Mistake lessons Tabs too difficult? Try these video lessons and learn fast
1
                Bassist: Alexander Milov
Tuning: Standart tuning

Riff 1
G|-------------------------------------------|
D|----------------20-------------------02----|
A|-0--75--023--------32-----32--02--------32-|
E|-------------3---------1-----3----3--------|

Riff 2
G|----------------|
D|----------------|	* = let ring.
A|-0*-------------|
E|-----3*--1*--3*-|

Then Bass intro 1 again, two times.

Riff 3
G|-------------------------------------|
D|-------------------------------------|
A|-0--0-0-0----------------------------|
E|----------3--3-3-3-1--1-1-1-3--3-3-3-|

Riff 4
G|-------------------------------------|
D|-------------------------------------|
A|-00000000----------------------------|
E|----------33333333-11111111-33333333-|

Riff 1: x2
Riff 2: x2
Riff 1: x2
Riff 3: x2
Riff 4: x8
Riff 3: x1
Riff 1: x1
Riff 4: x6


		Enjoy!!


			by Alexander Milov  (c)2002
            
Submit corrections

comments powered by Disqus
↑ Back to top | Mayday Bass for Annonymous Mistake. Lyrics for acoustic guitar and electric guitar. 1 Tablatures and chords are parodies/interpretations of the original songs. You may use it for private study, scholarship, research or language learning purposes only