>
 >
 >
Cinta Mu Mekar Di Hati

Cinta Mu Mekar Di Hati Guitar Tabs

May - Cinta Mu Mekar Di Hati chords, tabs, tablatures, lyrics

Guitar lessons | Add/correct | Request | Top 50 tabs Artists:  A B C D E F G H I J K L M N O P Q R S T U V W X Y Z 0-9

Cinta Mu Mekar Di Hati Guitar Tabs – May

CD, Sheet music, Poster

Do you like Cinta Mu Mekar Di Hati? Share with your friends now
ChordsChords v2TabsUkulele
                           May - Cinta Mu Mekar Di Hati                              


                                                                           

Intro Lead Guitar
                 
E||-------|-------------------|----------------------|---------------------|
B||-------|-------------------|----------------------|---------------------|
G||-------|-------------------|----------------------|--4br----------------|
D||-------|--5----------------|------------5----7----|---------------------|
A||-------|-------------------|-------5--------------|---------------------|
E||-------|-------------------|----------------------|---------------------|


   
------------------------|---------------------|-------15----------15----|
------------------------|---------------------|-------------17----------|
----------------14--16--|--17-----------------|-------------------------|
------------------------|---------------------|-------------------------|
------------------------|---------------------|-------------------------|
------------------------|---------------------|-------------------------|


   
--14br----------------|-------14-------------------|--------------------|
----------------------|-----------15--13-----------|--------------------|
----------------------|----------------------14----|--16----------------|
----------------------|----------------------------|--------------------|
----------------------|----------------------------|--------------------|
----------------------|----------------------------|--------------------|


   
---------------19------|--17b---------------17--15--|--14------------15br----|
-----------20----------|----------------------------|------------------------|
-----------------------|----------------------------|------------------------|
-----------------------|----------------------------|------------------------|
-----------------------|----------------------------|------------------------|
-----------------------|----------------------------|------------------------|


           
-------------------|-----------14--15--14---12--|--------------------|
-------------------|----------------------------|--15----------------|
-------------------|----------------------------|--------------------|
-------------------|----------------------------|--------------------|
-------------------|----------------------------|--------------------|
-------------------|----------------------------|--------------------|


 Guitar Solo                                                                           
-------------------|------------------------|-----------------------17-19-|
-------------------|------------------------|-----------------------------|
-------------------|------------------------|-----------------------------|
-------------------|--10--9------9--7-------|--7--5--9--7--5--4--2--------|
-------------------|---8--7------7--5-------|--5--3--7--5--3--2--0--------|
-------------------|------------------------|-----------------------------|


--20--------19------20-19-|--17--------17---19---17---|-------------------------|
--------------------------|---------------------------|--20----15--15--------L--|
--------------------------|---------------------------|-------------------------|
--------------------------|---------------------------|-------------------------|
--------------------------|---------------------------|-------------------------|
--------------------------|---------------------------|-------------------------|


 
-------------------|----------------------------|------------12----15----|
-------------------|-------------5s---8s----13--|--13--------------------|
-------------------|--5---4--5------------------|------------------------|
-------------------|----------------------------|------------------------|
-------------------|----------------------------|------------------------|
-------------------|----------------------------|------------------------|


  
--14brb-------------------------|-----------------------14-|
-------------15--13-------------|--------------------------|
----------------------12br------|--11----------------------|
--------------------------------|--------------------------|
--------------------------------|--------------------------|
--------------------------------|--------------------------|


                                         \1/                         
 
--15-14-12-------------------------------------|----------------------|
-----------15-13-12----------------------------|----------------------|
--------------------14-12-11-------------------|----------------------|
-----------------------------12-10-9-0-0~------|----------------------|
-----------------------------------------------|-----------5---3------|
-----------------------------------------------|-------------------5--|


                                                PM    PM    PM    PM  
  
----------------------|--------------------|--------------------------|
----------------------|--------------------|--------------------------|
----------------------|--------------------|--2-----4-----5-----7-----|
------------14--------|--------------------|-----0-----0-----0-----0--|
-------9--------------|--------------------|--------------------------|
--7-------------------|--------------------|--------------------------|


 
-----------------------|-----------------------|-------------------|
---------------8-------|-----------------------|-------------------|
--9~--------9------9---|--11br-----------------|-------------------|
-----------------------|-----------------------|-------------------|
-----------------------|-----------------------|-------------------|
-----------------------|-----------------------|-------------------|


 End Guitar solo
-------------------|-------------------|--------------------|-------------------|
-------------------|-------------------|--------------------|-------------------|
-------------------|-------------------|--------------------|-------------------|
--7----------------|--9----------------|--------------------|-------------------|
--5----------------|--7----------------|--------------------|--7----------------|
-------------------|-------------------|--------------------|-------------------|

            
                  
----------------------------|--------------------|
----------------------------|--------------------|
-------9b------------7------|--------------------|
------------------------10--|--9-----------------|
--L-------------------------|--------------------|
----------------------------|--------------------|


   
---------------------------------------------------|------------------------|
---------------------------------------------------|----------------13--15--|
--------------------------------------12---14--16--|--17--------------------|
------------------------------12--14---------------|------------------------|
--15--12--14--15--14--12--14-----------------------|------------------------|
---------------------------------------------------|------------------------|


      
------------15--------|--14brb-----------------|
--17------------------|------------------------|
----------------------|------------------------|
----------------------|------------------------|
----------------------|------------------------|
----------------------|------------------------|


                                                     \1/               
                 
--17--15--14---------------------------------------|-------------------|
--------------15--13--12---------------------------|-------------------|
--------------------------14--12--11---------------|-------------------|
--------------------------------------14---12--10--|--0----------------|
---------------------------------------------------|--0----------------|
---------------------------------------------------|-------------------|


 
-------------------|-------------------------|---------------------|
-------------------|-------------------------|---------------------|
-------------------|--12----11----11---------|---------------------|
-------------------|-------------------------|--12----9------------|
-------------------|-------------------------|---------------------|
-------------------|-------------------------|---------------------|


   
------------------------------------|------------12----15----|
------------------------------------|------------------------|
----------------------16--17--------|------------------------|
--------------12--14----------------|------------------------|
--15--12--14------------------------|------------------------|
------------------------------------|------------------------|


                                          \1/                      
                
--15-14-12-------------------------------------|-------------------|
-----------15-13-12----------------------------|-------------------|
--------------------14-12-11-------------------|-------------------|
-----------------------------12-10-9-0-0~------|-------------------|
-----------------------------------------------|-------------------|
-----------------------------------------------|-------------------|



Tablature Legend
----------------
L - tied note
x - dead note
g - grace note
(n) - ghost note
> - accentuded note
NH - natural harmonic
AH - artificial harmonic
TH - tapped harmonic
SH - semi harmonic
PH - pitch harmonic
h - hammer on
p - pull off
b - bend
br - bendRelease
pb - preBend
pbr - preBendRelease
brb - bendReleaseBend
\n/ - tremolo bar dip
\n - tremolo bar dive
-/n - tremolo bar Release up
/n\ - tremolo bar inverted dip
/n - tremolo bar return
-\n - tremolo bar Release down
S - shift slide
s - legato slide
/ -  slide into from below or out of upwards
\ -  slide into from above or out of downwards
~ - vibrato
W - wide vibrato
tr - trill
TP - tremolo picking
T - tapping
S - slap
P - pop
< - fade in
^ - brush up
v - brush down

Kalu ade pape slh n silap tlg email aku....
Enjoy xD





Comments


Popular May tabs & chords
Cinta Mu Mekar Di Hati 1 Chords
Cintamu Mekar Di Hati Chords
Gadis Tudung Putih Chords
Meniti Suratan Chords
Sendiri Chords
Sketsa Sebuah Cinta 1 Chords
Gadis Tudung Putih Ukulele
Jemu Ukulele
Ku Dalam Dilema Ukulele
Sendiri Ukulele


Song lyrics



↑ Back to top | Tablatures and chords are parodies/interpretations of the original songs. You may use it for private study, scholarship, research or language learning purposes only
© 2014 AZChords.com Contact us | Privacy policy | DMCA | Add/correct tabs | Request tabs | Top 50 tabs