>
 >
Whenever Wherever Whatever

Whenever Wherever Whatever Guitar Tabs

Maxwell - Whenever Wherever Whatever chords, tabs, tablatures, lyrics

Guitar lessons | Add/correct | Request | Top 50 tabs Artists:  A B C D E F G H I J K L M N O P Q R S T U V W X Y Z 0-9

Whenever Wherever Whatever Guitar Tabs – Maxwell

CD, Sheet music, Poster

Do you like Whenever Wherever Whatever? Share with your friends now
Tabs
Maxwell - Whenever Wherever Whatever

keep a lookout for his planned trilogy of albums coming out between 2007 and 2009.

The Intro Lead is meant for a second guitar and is played along with the Intro. I 
accounted for precise timing in my tab, but the times listed below should help. Send me 
please. Standard Tuning should do it. Thanks for checking this tab out.

Intro/Lead  (0:00-0:20)
Verse       (0:22-0:43)
Mini-Bridge (0:43-0:58)
Chorus      (1:02-1:23)
Verse       (1:24-1:45)
Mini-Bridge (1:46-2:01)
Chorus      (2:05-2:25)
Verse       (2:27-2:48)
Mini-Bridge (2:48-3:03)
Chorus/End  (3:07-3:37)

Intro Lead
E|-7--7-7--7-7-8-7-7--------12--12-12-14-15-15--14-14-12-10-7--|
B|-7---------------8-10-10----------------------------------7--|
G|-7---------------7----------------------------------------7--|
D|-9---------------7----------------------------------------9--|
A|-10--------------7----------------------------------------10-|
E|-------------------------------------------------------------|

Intro
E|---------------0-------------------------------|
B|-------3---------------3-----3-----------------|
G|-----4-------4-------4-------4-----------------|
D|---4-------4-------4-------4-------------------|
A|-----------------------------------------------|
E|-3-------3-------3-------3---------------------|

E|-------2-----0---3-----2-----0-----------------|
B|-------3-----3---3-----3-----3-----------------|
G|-----0-----0---0-----0-----0-------------------|
D|-----------------------------------------------|
A|---2-----2---------2-----2---------------------|
E|-0---------------------------------------------|

E|-----------------------0-----0-----------------|
B|-------1-----1-------1-------1-----------------|
G|-----0-------0-----0-------0-------------------|
D|---2-------2---2-0-------0---------------------|
A|-0-------0-------------------------------------|
E|-----------------------------------------------|

E|---------------0-------------------------------|
B|-------3---------------3-----------------------|
G|-----4-------4-------4-------------------------|
D|---4-------4-------4---------------------------|
A|-----------------------------------------------|
E|-3-------3-------3-----------------------------|

Verse
E|---------------0-------------------------------|
B|-------3---------------3---3-------------------|
G|-----4-------4-------4-----4-------------------|
D|---4-------4-------4-------4-------------------|
A|-----------------------------------------------|
E|-3-------3-------3-------3---------------------|

E|-------2-----0---------2-----0-----------------|
B|-------3-----3---------3-----3-----------------|
G|-----0-----0---------0-----0-------------------|
D|-----------------------------------------------|
A|---2-----2---------2-----2---------------------|
E|-0---------------0-----------------------------|

E|---------0-------------0-----0-----------------|
B|-------1-----1-------1-------1-----------------|
G|-----0-------0-----0-------0-------------------|
D|---2-------2---2-0-------0---------------------|
A|-0---------------------------------------------|
E|-----------------------------------------------|

E|---------------0------3---0--------------------|
B|-------3------------------3--------------------|
G|-----4-------4------4---4----------------------|
D|---4-------4------4----------------------------|
A|-----------------------------------------------|
E|-3-------3-------------------------------------|

Mini-Bridge
E|-------7---------------7-----------------------|
B|-----8-------8-------8-------8-----------------|
G|---7-------7-------0-------0-0-----------------|
D|-7-------7-------------------------------------|
A|---------------7-6-------6---------------------|
E|-----------------------------------------------|

E|-------------0--2-2--3--5----------0-------------0-|
B|-------3-----3--3-3--3--5--------1-----1-------1---|
G|-----4-------4--0-0--0--0------0-------0-----0-----|
D|---4-------4-----------------2-------2---2-0-------|
A|---------------------------0-----------------------|
E|-3-------3------0----------------------------------|

Chorus
E|-3---2---0--0---------2-2--3--5--------------------|
B|-----3---1--1---3--3--3-3--3--5--------------------|
G|---------0--0---4--4--0-0--0--0--------------------|
D|-2-------2--2---4--4-------------------------------|
A|-3---2---------------------------------------------|
E|----------------3--3--0-0--------------------------|

E|-3---2---0--0----------------------------------|
B|-----3---1--1---3--3----3--3-------------------|
G|---------0--0---4--4----4--4-------------------|
D|-2-------2--2---4--4----4--4-------------------|
A|-3---2-----------------------------------------|
E|----------------3--3--3-3--3-------------------|

Chorus/END
E|-3---2---0--0---------2-2--3--5--------------------|
B|-----3---1--1---3--3--3-3--3--5--------------------|
G|---------0--0---4--4--0-0--0--0--------------------|
D|-2-------2--2---4--4-------------------------------|
A|-3---2---------------------------------------------|
E|----------------3--3--0-0--------------------------|

E|-3---2---0--0---------2-2--3--5--------------------|
B|-----3---1--1---3--3--3-3--3--5--------------------|
G|---------0--0---4--4--0-0--0--0--------------------|
D|-2-------2--2---4--4-------------------------------|
A|-3---2---------------------------------------------|
E|----------------3--3--0-0--------------------------|

E|-3---2---0--0----10--------------------------------|
B|-----3---1--1----7---------------------------------|
G|---------0--0----7---------------------------------|
D|-2-------2--2----9---------------------------------|
A|-3---2-----------10--------------------------------|
E|---------------------------------------------------|





Comments


Popular Maxwell tabs & chords
Fortunate Chords
Pretty Wings Chords
Silently Chords
This Woman's Work Chords
This Woman's Work 1 Chords
Playing Possum Intro Tabs
Fortunate Ukulele
Pretty Wings Ukulele
Silently Ukulele
This Womans Work Ukulele


Song lyrics



↑ Back to top | Tablatures and chords are parodies/interpretations of the original songs. You may use it for private study, scholarship, research or language learning purposes only
© 2014 AZChords.com Contact us | Privacy policy | DMCA | Add/correct tabs | Request tabs | Top 50 tabs