» » »

Playing Possum Tabs (ver.1)

Artists:  A B C D E F G H I J K L M N O P Q R S T U V W X Y Z # 

Playing Possum Tabs (ver.1)

Maxwell
Rating:
0/5 (0 votes)

Hard to play? Try these video lessons and learn fast.
                (Intro)
Maxwell - Playing Possum Intro

Could not find Tab for this song anywhere so i did my best to put one together.

Capo 2nd Fret

e|---2h4p2h4p2h4p2h4p2----0h2p0h2p0h2p0h2p0-------------------------------------------------|
B|---2--------------------0-------------------2--------------------------------------2-2----|
G|---2--------------------0-------------------1---------------1h2p1h2p1h2p1h2-p1-----1-1----|
D|---0--------------------0-------------------2---------------2------------------0---2-2----|
A|--------------------------------------------0---------------0------------------2----------|
E|------------------------------------------------------------0------------------3----------|

e|---2h4p2h4p2h4p2h4p2----0h2p0h2p0h2p0h2p0-------------------------------------------------|
B|---2--------------------0-------------------2---------------2---------------------2-2-----|
G|---2--------------------0-------------------1---------2-2-1-1h2p1h2p1h2p1h2-------1-1-----|
D|---0--------------------0-------------------2---------0-0-0-0------------------0--2-2-----|
A|--------------------------------------------0---------0-0-0-2------------------2----------|
E|-------------------------------------------------------------------------------3----------|

e|--4----4---2------2-2--|
B|--4h5--4---2------4-4--|
G|--4----4---2------4-4--|
D|--4h6--6---4----4-4-4--|
A|--4----6---4----4-2-2--|
E|--0----4---2----2-2-2--|
            
Hard to play? Try these video lessons and learn fast. | Correct




comments powered by Disqus
↑ Back to top | Tablatures and chords are parodies/interpretations of the original songs. You may use it for private study, scholarship, research or language learning purposes only