» » »

Nient Altro Che Noi Tabs (ver.1)

Artists:  A B C D E F G H I J K L M N O P Q R S T U V W X Y Z # 

Nient Altro Che Noi Tabs (ver.1)

Max Pezzali
Rating:
0/5 (0 votes)

Tabs too difficult? Try these video lessons and learn fast.
                    Nient'altro che noi 
 (Max Pezzali - Love/Life)
__________________________________________________________________________________


intro:

   Eb  Bb    Ab  Bb    Ab  Ab    Eb  Bb
e|---------|---------|---------|---------|
B|-8---6---|---------|-------9-|-8---6---|
G|---------|-8---7---|-5-7-8---|---------|  x2
D|---8---8-|---8---8-|---------|---8---8-|
A|---------|---------|---------|---------|
E|---------|---------|---------|---------|


Strofa:
| Eb  Bb  | Ab  Bb  | Ab      | Eb  Bb  |
| Eb  Bb  | Ab  Bb  | Ab      | Eb  Bb  |
| Gm      | Cm      | Gm      | Cm      |
| Ab      | Eb  Bb  | Eb      | Eb      |

Rit:
| Eb      | Eb      | Ab  Eb  | Eb      |
| Ab      | Cm  Bb  | Eb9 Bb  | Bb      |
| Eb      | Eb      | Ab  Eb  | Eb      |
| Ab      | Cm  Bb  | Eb      | Eb      |




    Eb       Bb    Ab     Bb   Ab         Eb Bb
Potrei stare ore e ore qui     ad accarezzaare
    Eb          Bb      Ab   Bb  Ab            Eb Bb
la tua bocca ed i tuoi zigomi    senza mai parlaare,
     Gm                    Cm
senz'ascoltare altro nient'altro che
   Gm                   Cm
il tuo respiro crescere,
       Ab                Eb         
senza sentire altro che noi
      Bb         Eb    Eb
nient'altro che noi.


Potrei star fermo immobile solo con te addosso
a guardare le tue palpebre chiudersi ad ogni passo
della mia mano lenta che scivola
sulla tua pelle umida
senza sentire altro che noi
nient'altro che noi.

                   Eb    Eb                 Ab  Eb   Eb
Non c'è niente al mondo     che valga un secoondo
                  Ab                       Cm
vissuto accanto a te, che valga un gesto tuo,
      Bb      Eb9 Bb   Bb
o un tuo movimeento,
                  Eb    Eb                 Ab  Eb  Eb
perché niente al mondo     mi ha mai dato taanto
               Ab                Cm
da emozionarmi come quando siamo noi,
      Bb         Eb    Eb
nient'altro che noi.


| Eb  Bb  | Ab  Bb  | Ab      | Eb  Bb  |


Potrei perdermi guardandoti mentre stai dormendo,
col tuo corpo che muovendosi sembra stia cercando
anche nel sonno di avvicinarsi a me,
quasi fosse impossibile
per te sentire altro che noi,
nient'altro che noi.

[Rit.] x2



solo finale adattato per chitarra:

        (Eb)             Eb           Eb            Ab      Eb      Eb
e|- -----------8-10-11-|-11---11----|------10---8-|---------------|------------|
B|- ------8-11---------|------------|-------------|-11----9-8-----|---------11-|
G|- -8-10--------------|------------|-------------|---------------|------------|
D|- -------------------|------------|-------------|---------------|------------|
A|- -------------------|------------|-------------|---------------|------------|
E|- -------------------|------------|-------------|---------------|------------|

   Ab                     Cm7     Bb         Eb9    Bb      Bb
e|-8------------------8-|------------------|--------------|------------------|
B|----11-11-11-11--11---|-11------7/8------|--------------|-----------8-9-11-|
G|----------------------|-------------10-8-|-10-----------|--8-7-8-10--------|
D|----------------------|------------------|--------------|------------------|
A|----------------------|------------------|--------------|------------------|
E|----------------------|------------------|--------------|------------------|

   Eb                   Eb               Ab      Eb       Eb
e|--------8-----------|-------10--8-10-|----------------|----------------|
B|-11-------11--------|----------------|-11----9-8------|-------------11-|
G|--------------------|----------------|----------------|----------------|
D|--------------------|----------------|----------------|----------------|
A|--------------------|----------------|----------------|----------------|
E|--------------------|----------------|----------------|----------------|

   Ab                   Cm7     Bb         Eb             Eb
e|-8----------------8-|------------------|--------------|--------------|
B|---11-11-8-11--11---|-11------7/8------|--------------|--------------|
G|--------------------|-------------10-8-|-8------------|--------------|
D|--------------------|------------------|--------------|--------------|
A|--------------------|------------------|--------------|--------------|
E|--------------------|------------------|--------------|--------------|


outro:

     Eb  Bb    Ab  Bb    Ab  Eb    Ab  Bb      Eb
e||----------|---------|---------|----------||-6---|
B||--8---6---|---------|---------|----------||-8---|
G||*---------|-8---7---|-5-------|---------*||-8---|
D||----8---8-|---8---8-|-----8---|-6---8----||-----|
A||*---------|---------|---6---6-|---6---8-*||-----|
E||----------|---------|---------|----------||-----|



__________________________________________________________________________________
            
Tabs too difficult? Try these video lessons and learn fast.




comments powered by Disqus
↑ Back to top | Tablatures and chords are parodies/interpretations of the original songs. You may use it for private study, scholarship, research or language learning purposes only