» » »

Il Mondo Insieme A Te Tabs (ver.1)

Artists:  A B C D E F G H I J K L M N O P Q R S T U V W X Y Z # 

Il Mondo Insieme A Te Tabs (ver.1)

Max Pezzali
Rating:
0/5 (0 votes)

Hard to play? Try these video lessons and learn fast.
                -----------------------------------------------------------------------------------------------
  Artist - Max Pezzali
  Song   - Il mondo insieme a te
  Album  - Il mondo insieme a te (2004)
  Tabbed - Jakob Jugovic
  Year   - 2009
-----------------------------------------------------------------------------------------------

  p - pull
  h - hammer on
  / - slide upwards
  \ - slide downwards
  x - dont play this string
  ~ - vibrato
  o - 1/4 (timescale)
  { - 2nd guitar
  ^ - bend
  r - release

-----------------------------------------------------------------------------------------------


[E]

E|---|---|---|---|---|---|
B|---|---|---|---|---|---|
G|-o-|---|---|---|---|---|
D|---|-o-|---|---|---|---|
A|---|-o-|---|---|---|---|
E|---|---|---|---|---|---|


[B]

E|---|-o-|---|---|---|---|
B|---|---|-o-|---|---|---|
G|---|---|-o-|---|---|---|
D|---|---|-o-|---|---|---|
A|---|-o-|---|---|---|---|
E|---|---|---|---|---|---| x


[C#m]

E|---|---|---|-o-|---|---|
B|---|---|---|---|-o-|---|
G|---|---|---|---|---|-o-|
D|---|---|---|---|---|-o-|
A|---|---|---|-o-|---|---|
E|---|---|---|---|---|---| x


[A]

E|---|---|---|---|---|---|
B|---|-o-|---|---|---|---|
G|---|-o-|---|---|---|---|
D|---|-o-|---|---|---|---|
A|---|---|---|---|---|---|
E|---|---|---|---|---|---| x


-----------------------------------------------------------------------------------------------


  INTRO:

    o . . . o . . . o . . . o . . .
E |---------------------------------|
B |---------------------------------|
G |---------------------4-----------|  x2
D |-----6-------------6---------4---|
A |---7-------------7---------6-----|
E |-9-----------------------7-------|


  VERSE:

    o . . . o . . . o . . . o . . .
E |---------------------------------|
B |---------------------------------|
G |---------------------4-----------|  x3
D |-----6-------------6---------4---|
A |---7-------------7---------6-----|
E |-9-----------------------7-------|


    o . . . o . . . o . . . o . . .
E |---------------------------------|
B |---------------------------------|
G |---------------------------------|
D |-----2---------------4-------2---|
A |---4---------------6-------4-----|
E |-5---------------7-------5-------|


    o . . . o . . . o . . . o . . .
E |{4}------------------------------|
B |{5}------------------------------|
G |{6}------------------4-----------|  x3
D |{6}--6-------------6---------4---|
A |---7-------------7---------6-----|
E |-9-----------------------7-------|


    o . . . o . . . o . . . o . . .
E |{4}-------------{2}-----{0}------|
B |{5}-------------{4}-----{2}------|
G |{6}-------------{4}-----{2}------|
D |{6}--2----------{4}--4--{2}--2---|
A |---4---------------6-------4-----|
E |-5---------------7-------5-------|


  CHORUS:

    o . . . o . . . o . . . o . . . o . . . o . . . o . . . o . . .    _
E |-----------------------------------------------------------------|   |
B |-----------------------------------------------------------------|   |
G |-----------------------------------------------------------------|   |
D |-----------------------------------------------------------------|   |
A |-----------------------------------------------------------------|   |
E |-----------------------------------------------------------------|   |
    E   E       B   C#m C#m A   A   E   E       B   C#m C#m A   A       |
                                                                        | x2
                                                                        |
    o . . . o . . . o . . . o . . . o . . . o . . . o . . . o . . .     |
E |-----------------------------------------------------------------|   |
B |-----------------------------------------------------------------|   |
G |-----------------------------------------------------------------|   |
D |-----------------------------------------------------------------|   |
A |-----------------------------------------------------------------|   |
E |-----------------------------------------------------------------|  _|
    B   B       A   E   E   B       B   B       A   E   E   B


  'INTRO':

    o . . . o . . . o . . . o . . .
E |---------------------------------|
B |---------------------------------|
G |---------------------4-----------|
D |-----6-------------6---------4---|
A |---7-------------7---------6-----|
E |-9-----------------------7-------|


  VERSE:

    o . . . o . . . o . . . o . . .
E |---------------------------------|
B |---------------------------------|
G |---------------------4-----------|  x3
D |-----6-------------6---------4---|
A |---7-------------7---------6-----|
E |-9-----------------------7-------|


    o . . . o . . . o . . . o . . .
E |---------------------------------|
B |---------------------------------|
G |---------------------------------|
D |-----2---------------4-------2---|
A |---4---------------6-------4-----|
E |-5---------------7-------5-------|


    o . . . o . . . o . . . o . . .
E |{4}------------------------------|
B |{5}------------------------------|
G |{6}------------------4-----------|  x3
D |{6}--6-------------6---------4---|
A |---7-------------7---------6-----|
E |-9-----------------------7-------|


    o . . . o . . . o . . . o . . .
E |{4}-------------{2}-----{0}------|
B |{5}-------------{4}-----{2}------|
G |{6}-------------{4}-----{2}------|
D |{6}--2----------{4}--4--{2}--2---|
A |---4---------------6-------4-----|
E |-5---------------7-------5-------|


  CHORUS:

    o . . . o . . . o . . . o . . . o . . . o . . . o . . . o . . .    _
E |-----------------------------------------------------------------|   |
B |-----------------------------------------------------------------|   |
G |-----------------------------------------------------------------|   |
D |-----------------------------------------------------------------|   |
A |-----------------------------------------------------------------|   |
E |-----------------------------------------------------------------|   |
    E   E       B   C#m C#m A   A   E   E       B   C#m C#m A   A       |
                                                                        | x2
                                                                        |
    o . . . o . . . o . . . o . . . o . . . o . . . o . . . o . . .     |
E |-----------------------------------------------------------------|   |
B |-----------------------------------------------------------------|   |
G |-----------------------------------------------------------------|   |
D |-----------------------------------------------------------------|   |
A |-----------------------------------------------------------------|   |
E |-----------------------------------------------------------------|  _|
    B   B       A   E   E   B       B   B       A   E   E   B


  BRIDGE:

  [guitar 1]

    o . . . o . . . o . . . o . . . o . . . o . . . o . . . o . . .
E |-----5-4-----5-4-----5-4-----5-4-----5-4-----5-4-----5-4-----5-4-|
B |-----------4-------4-------4-------4-------4-------4-------4-----|
G |-----------------------------------------------------------------|
D |-----------------------------------------------------------------|
A |-----------------------------------------------------------------|
E |-----------------------------------------------------------------|


    o . . . o . . . o . . . o . . . o . . . o . . . o . . . o . . .
E |-----5-4-----5-4-----5-4-----5-4-------------------4-------4---4-|
B |---5-------5-------5-------5-------5-5-----------5---5-7-5---5---|
G |-----------------------------------------------------------------|
D |-----------------------------------------------------------------|
A |-----------------------------------------------------------------|
E |-----------------------------------------------------------------|


  [solo guitar]

    o . . . o . . . o . . . o . . . o . . . o . . . o . . . o . . .
E |-----------------------------------------------------------------|
B |-----------------------------------------------------------------|
G |------------------------------------------------/11---^12r11~~---|
D |-67676---------------------------6767676-------------------------|
A |-----------7-------4-----7---------------------------------------|
E |-----------------------------------------------------------------|


    o . . . o . . . o . . . o . . . o . . . o . . . o . . . o . . .
E |-----------------------------------------------------------------|-----|
B |-----------------------------------------------------------------|-----|
G |--------------------------------------------------/11-------/14--|-13~-|
D |-67676-----------------------6---9-----7-----6-------------------|-----|
A |-------7---------4-----7---7-------------------------------------|-----|
E |-----------------------------------------------------------------|-----|


  CHORUS:

    o . . . o . . . o . . . o . . . o . . . o . . . o . . . o . . .
E |-----------------------------------------------------------------|
B |-----------------------------------------------------------------|
G |-----------------------------------------------------------------|
D |-----------------------------------------------------------------|
A |-----------------------------------------------------------------|
E |-----------------------------------------------------------------|
    E   E       B   C#m C#m A   A   E   E       B   C#m C#m A   A


    o . . . o . . . o . . . o . . . o . . . o . . . o . . . o . . .
E |-----------------------------------------------------------------| 
B |-----------------------------------------------------------------|
G |-----------------------------------------------------------------|
D |-----------------------------------------------------------------|
A |-----------------------------------------------------------------|
E |-----------------------------------------------------------------|
    B   B       A   E   E   B       B   B       A   E   E   B


  OUTRO:

    o . . . o . . . o . . . o . . .
E |---------------------------------|
B |---------------------------------|
G |---------------------4-----------|
D |-----6-------------6---------4---|
A |---7-------------7---------6-----|
E |-9-----------------------7-------|



-----------------------------------------------------------------------------------------------

VERSE

Forse non sarei
come sono adesso
forse non avrei
questa forza addosso
forse non saprei
neanche fare un passo
forse crollerei
scivolando in basso

invece tu sei qui
e mi hai dato tutto questo
e invece tu sei qui
mi hai rimesso al proprio posto
i più piccoli
pezzi della mia esistenza
componendoli
dando loro una coerenza


CHORUS

come è bello il mondo insieme a te
mi sembra impossibile
che tutto ciò che vedo c'è 
da sempre solo che
io non sapevo come fare
per guardare ciò che tu
mi fai vedere

come è grande il mondo insieme a te
è come rinascere
e vedere finalmente che
rischiavo di perdere
mille miliardi e più di cose
se tu non mi avessi fatto
il dono di dividerle con me


VERSE

forse non avrei
mai trovato un posto
forse non potrei
regalarti un gesto
forse non saprei
neanche cosa è giusto
forse non sarei
neanche più rimasto


invece tu sei qui
sei arrivata per restare
invece tu sei qui
non per prendere o lasciare
ma per rendermi
ogni giorno un po' migliore
insegnandomi
la semplicità di amare


CHORUS

come è grande il mondo insieme a te
è come rinascere
e vedere finalmente che
rischiavo di perdere
mille miliardi e più di cose
se tu non mi avessi fatto
il dono di dividerle con me
            
Hard to play? Try these video lessons and learn fast. | Correct




comments powered by Disqus
↑ Back to top | Tablatures and chords are parodies/interpretations of the original songs. You may use it for private study, scholarship, research or language learning purposes only