» » »

Matt Redman, 10000 Reasons Bless The Lord 4 Tabs (ver.1)

Artists:  A B C D E F G H I J K L M N O P Q R S T U V W X Y Z # 

10000 Reasons Bless The Lord 4 Tabs (ver.1)

Matt Redman Tabs
 Rating:
4.2/5 (5 votes)
10000 Reasons Bless The Lord 4 lessons Tabs too difficult? Try these video lessons and learn fast
1
                Okay, so here's the piano part for this song on guitar. We do this song in my youth
group and I figured someone out there would like to know the piano part on guitar. If you


INTRO:
e|-----------------------------------------------------|
B|-13-15-12----12----------------15-12-----------------|
G|----------14----14-12-------12-------12-14~~~12-11-10|
D|----------------------14-14--------------------------|
A|-----------------------------------------------------|
E|-----------------------------------------------------|

e|--------12-12--------12-14----------------------|
B|-12-15---------15-12-------12-------12----------|
G|------------------------------14-14----14-12-12-|
D|------------------------------------------------|
A|------------------------------------------------|
E|------------------------------------------------|


CHORUS:
e|-----------------------------------------------------|
B|-13-15-12----12----------------15-12-----------------|
G|----------14----14-12-------12-------12-14~~~12-11-10|
D|----------------------14-14--------------------------|
A|-----------------------------------------------------|
E|-----------------------------------------------------|

e|--------12-12--------12-14----------------------|
B|-12-15---------15-12-------12-------12----------|
G|------------------------------14-14----14-12-12-|
D|------------------------------------------------|
A|------------------------------------------------|
E|------------------------------------------------|


RIFF 1:
e|----------------------------|
B|-13-15-12-------12-13-15-12-|
G|----------12-14-------------|
D|----------------------------|
A|----------------------------|
E|----------------------------|


VERSE 1:
    C         G          D        Em
The sun comes up, it's a new day dawning
C    G                    D     Em
It's time to sing Your song again
C            G               D          Em
Whatever may pass, and whatever lies before me
C           G                Dsus D G
Let me be singing when the evening comes


CHORUS:
e|-----------------------------------------------------|
B|-13-15-12----12----------------15-12-----------------|
G|----------14----14-12-------12-------12-14~~~12-11-10|
D|----------------------14-14--------------------------|
A|-----------------------------------------------------|
E|-----------------------------------------------------|

e|--------12-12--------12-14----------------------|
B|-12-15---------15-12-------12-------12----------|
G|------------------------------14-14----14-12-12-|
D|------------------------------------------------|
A|------------------------------------------------|
E|------------------------------------------------|


VERSE 2:
    C         G          D        Em
You're rich in love, and You're slow to anger
C    G                    D     Em
Your name is great, and your heart is kind
C            G               D          Em
For all your goodness I will keep on singing
C           G                Dsus D G
Ten thousand reasons for my heart to find


CHORUS:
e|-----------------------------------------------------|
B|-13-15-12----12----------------15-12-----------------|
G|----------14----14-12-------12-------12-14~~~12-11-10|
D|----------------------14-14--------------------------|
A|-----------------------------------------------------|
E|-----------------------------------------------------|

e|--------12-12--------12-14----------------------|
B|-12-15---------15-12-------12-------12----------|
G|------------------------------14-14----14-12-12-|
D|------------------------------------------------|
A|------------------------------------------------|
E|------------------------------------------------|


Bridge (no lyrics, just piano [or guitar in this case])
e|-12-12----------------------------------------------------|
B|-------15-12-------12----------------15-12-------12-------|
G|-------------14-14----14-12-------12-------12-14----14-12-|
D|----------------------------14-14-------------------------|
A|----------------------------------------------------------|
E|----------------------------------------------------------|

e|--------12-12--------12-14----------------------|
B|-12-15---------15-12-------12-------12----------|
G|------------------------------14-14----14-12-12-|
D|------------------------------------------------|
A|------------------------------------------------|
E|------------------------------------------------|


VERSE 3:
    C         G          D        Em
And on that day when my strength is failing
C    G                    D     Em
The end draws near, and my time has come
C            G               D          Em
Still my soul will sing Your praise unending
C           G                Dsus D G
Ten thousand years and then forevermore

Forevermore!
e|-15~~~~~~~~~~~~~~~~-|


CHORUS:
e|-----------------------------------------------------|
B|-13-15-12----12----------------15-12-----------------|
G|----------14----14-12-------12-------12-14~~~12-11-10|
D|----------------------14-14--------------------------|
A|-----------------------------------------------------|
E|-----------------------------------------------------|

e|--------12-12--------12-14----------------------|
B|-12-15---------15-12-------12-------12----------|
G|------------------------------14-14----14-12-12-|
D|------------------------------------------------|
A|------------------------------------------------|
E|------------------------------------------------|


OUTRO:
e|-----------------------------------------------------|
B|-13-15-12----12----------------15-12-----------------|
G|----------14----14-12-------12-------12-14~~~12-11-10|
D|----------------------14-14--------------------------|
A|-----------------------------------------------------|
E|-----------------------------------------------------|

e|--------12-12--------12-14----------------------|
B|-12-15---------15-12-------12-------12----------|
G|------------------------------14-14----14-12-12-|
D|------------------------------------------------|
A|------------------------------------------------|
E|------------------------------------------------|


This is a really amazing song, so please, please, please! Whatever you do, please play
this to the glory of God. Don't play it because it may sound nice. Play it because you
are His child glorifying Him.
            
Submit corrections

comments powered by Disqus
↑ Back to top | Matt Redman Tabs for 10000 Reasons Bless The Lord. Lyrics for acoustic guitar and electric guitar. 1 Tablatures and chords are parodies/interpretations of the original songs. You may use it for private study, scholarship, research or language learning purposes only