» » »

Matt Nathanson, Kiss Quick Chords (ver.1)

Artists:  A B C D E F G H I J K L M N O P Q R S T U V W X Y Z # 

Kiss Quick Chords (ver.1)

Matt Nathanson Tabs
 Rating:
4.4/5 (7 votes)
Kiss Quick lessons Tabs too difficult? Try these video lessons and learn fast
                
Capo 1

Intro/Verse:

    C           G           F
e --------3-----------3-----------3-----------3----------|
B ----1-----1-1---1-----1-1---1-----1-1---1-----1-1------|
G -------------------------------------------------------|
D --------------------------3---3-------3---3------------|
A --3---3------------------------------------------------|
E --------------3---3------------------------------------|

Pre-chorus (Oh-oh-oh-oh):

    G           Am          F
e --------3-----------3-----------3-----------3----------|
B ----1-----1-1---1-----1-1---1-----1-1---1-----1-1------|
G -------------------------------------------------------|
D --------------------------3---3-------3---3------------|
A --------------0---0------------------------------------|
E --3---3------------------------------------------------|

Chorus:
    C                       G
e --------3-----------3-----------3-----------3----------|
B ----1-----1-1---1-----1-1---1-----1-1---1-----1-1------|
G -------------------------------------------------------|
D -------------------------------------------------------|
A --3---3-------3---3------------------------------------|
E --------------------------3---3-------3---3------------|

    Am                      F
e --------3-----------3-----------3-----------3----------|
B ----1-----1-1---1-----1-1---1-----1-1---1-----1-1------|
G -------------------------------------------------------|
D --------------------------3---3-------3---3------------|
A --0---0-------0---0------------------------------------|
E -------------------------------------------------------|

C-G-F

C          G
This year, all but disappeared,
F
bought into fairy tales,
But sleeping beauty just
C              G                  F
kept score and tried to sleep more
             C          G         F
She said "I'm not quite, myself tonight,
                                       C
But the way you touch me, oh, makes me tongue tied,
G                      F
That could be the wine too."

C
Kiss Quick, I've got a line out the door
    G
Who all think they can save me.
Am
One by one they lay the world at my feet,
       F
One by one they drive me crazy.

C-G-F

She said "I know love,
and it's all push and shove,
so stop talking
and put your back into it."
Loaded, oh my hands shook to hold it
                                             G
I turned her body on, I turned her body on myself.
   Am    F
Oo-oo-oo-oo
G  Am    F
Oo-oo-oo-oo

Kiss Quick, I've got a line out the door
Who all think they can save me.
One by one they lay the world at my feet,
One by one they drive me crazy.

Shut your mouth,
Pull me out, before this all goes grey.
One by one they lay the world at my feet.
One by one they go away.

C    G
 Oo-oo-oo-oo
      Am   F
Oo-oo-oo-oo

G  Am    F
Oh-oh-oh-oh
Oh-oh-oh-oh

Come on, come on, come on.
Kiss quick, I've got a line out the door
Who all think they can save me.
Oh, one by one they lay the world at my feet.
One by one they drive me crazy.

Shut your mouth,
Pull me out before this all goes grey.
One by one they lay the world at my feet.
One by one they go away.
        C
They go away.
        G
They go away.
      Am
Oo-oo-oo-oo
      F
Oo-oo-oo-oo

        C
Sold my blood for money,
G          Am
baby, baby.
                   F
And I love how it feels.

C-G-F
C          G            F
This year, all but disappears.
            
Submit corrections

comments powered by Disqus
↑ Back to top | Matt Nathanson Chords for Kiss Quick. Lyrics for acoustic guitar and electric guitar. Tablatures and chords are parodies/interpretations of the original songs. You may use it for private study, scholarship, research or language learning purposes only