» » »

Matt Nathanson, Detroit Waves Tabs (ver.1)

Artists:  A B C D E F G H I J K L M N O P Q R S T U V W X Y Z # 

Detroit Waves Tabs (ver.1)

Matt Nathanson Tabs
Rating:
5/5 (1 vote)
Detroit Waves lessons Tabs too difficult? Try these video lessons and learn fast
                Im pretty sure this is right. If you are playing the acoustic version, I think it sounds 
to leave out the post chorus chords, and also leave out the last 6 on the intro.


Intro

e|-------------------------------------|
B|----6---8---10---11---10---8---6---6-|
G|-------------------------------------| x 2
D|--0---0---0----0----0----0---0---0---|
A|-------------------------------------|
E|-------------------------------------|

Verse

e|--x---x--0--1--|
B|--10--x--1--1--|
G|--7---8--2--3--|
D|--0---8--2--3--|
A|--x---6--0--1--|
E|--x---x--x--x--|

Chorus

e|--0--1--0--1--|
B|--1--3--1--1--|
G|--0--2--2--3--|
D|--2--0--2--3--|
A|--3--x--0--1--|
E|--x--x--x--x--|


lyrics to acoustic version: pretty much the same as normal version

So, we let it go to start again
Knowing now how all our best intentions never lit the world on fire
And the lights, illuminate the exit signs
And over the wings the skies an open endless sea, crowding up surrounding me

And all, Detroit waves
Goodnight
Spread out
Beneath
Me now
If I could, if I could Change
Believe me
I would yes I would for you, my love

And when, you're warm enough to share your sheets
Cold enough to make it seem like I was only there long enough to disappear
I'll still, say your name to fall asleep
Over and over a cynic saying rosary
A liar living make believe

And all, Detroit waves
Goodnight
Spread out
Beneath
Me now
If I could, if I could change
Believe me
I would I would

(normal version-Comes around, around, around
Comes around, around, around, again)

So right, so right, oh

and Detroit waves
Goodnight
Spread out
Beneath me now
If I could change
Believe me
I would
yes I would
            

comments powered by Disqus
↑ Back to top | Matt Nathanson Tabs for Detroit Waves. Lyrics for acoustic guitar and electric guitar. Tablatures and chords are parodies/interpretations of the original songs. You may use it for private study, scholarship, research or language learning purposes only