» » »

Bent Tabs (ver.1)

Artists:  A B C D E F G H I J K L M N O P Q R S T U V W X Y Z # 

Bent Tabs (ver.1)

Matt Nathanson
Rating:
1/5 (1 vote)
Tabs too difficult? Try these video lessons and learn fast.
                Capo on the 4th fret
INTRO:

---0------2------0-----2-------3--2--0---------------|
---3------3------3-----3-------3--3--3---------------|
---2------2------2-----2-------0--0--0---------------|
---0------0------0-----0-------0--0--0---------------|whole thing twice
-------------------------------0--0--0---------------|
-------------------------------3--3--3---------------|
|-----------3x----------|     |---end on-------------|
figure out the strumming on ur own

VERSE:
----0-----2----3------------------------------------|
----3-----3----3------------------------------------|
----2-----2----0------------------------------------|
----0-----0----0------------------------------------|
---------------2------------------------------------|
---------------3------------------------------------|
figure out strumming

chorus:

--2----2----3----2----3------------------------------|
--3----3----3----3----3------------------------------|
--4----4----0----2----2------------------------------|
--4----4----0----0----2------------------------------|
--2----0----2---------0------------------------------|
------------3----------------------------------------|
once again figure out the strumming

thats pretty much it except for the little bridge type thing
            
Tabs too difficult? Try these video lessons and learn fast.


comments powered by Disqus
↑ Back to top | Tablatures and chords are parodies/interpretations of the original songs. You may use it for private study, scholarship, research or language learning purposes only