» » »

Tall Trees Tabs (ver.1)

Artists:  A B C D E F G H I J K L M N O P Q R S T U V W X Y Z # 

Tall Trees Tabs (ver.1)

Matt Mays And El Torpedo
Rating:
4/5 (3 votes)

Hard to play? Try these video lessons and learn fast.
                (Intro)

Standard Tuning

Intro Riff:
  |-------------------------------------------------------------------|
  |-------------------------------------------------------------------|
  |--------------------------------------0----------------------------|
  |---------------5-4-3-2-------------0h2-----------------------------|
  |---(5)(4)(3)(2)--------------0-2-3---------------------------------|
  |----3--2--1--0----------------------------3------------------------|

Intro Chords: Em C G

Verse Chords:

G                    C              G
Young leaf, From the seed that was sown.

G                           C     G
Two hundred years in the ground.


Little fill between chords:
E  |----3-------------------------------------------|
B  |------------------------------------------------|
G  |------------------------------------------------|
D  |----------------------2-------------------------|
A  |----2-----------------2-------------------------|
E  |----3----3--2--1------0-------------------------|
..in the ground..                            ...Tall Trees Hangin'.......

Em                 C         G
Tall trees hangin' over the road

G                                   C      G
Feels like... they're starin' me doooowwwwn

Intro Riff Again

Verse 2

The rest is pretty much the same. Same chords over and over.
You Should be able to figure it out by listening to the song. My first tab by the way, hope it
helped. MM&ET FTW!!!
            
Hard to play? Try these video lessons and learn fast. | Correct




comments powered by Disqus
↑ Back to top | Tablatures and chords are parodies/interpretations of the original songs. You may use it for private study, scholarship, research or language learning purposes only