» » »

Matthew Sweet, Where You Get Love Tabs (ver.1)

Artists:  A B C D E F G H I J K L M N O P Q R S T U V W X Y Z # 

Where You Get Love Tabs (ver.1)

Matthew Sweet Tabs
 Rating:
4/5 (4 votes)
Where You Get Love lessons Tabs too difficult? Try these video lessons and learn fast
                #

"Where You Get Love"
By Matthew Sweet



Distortion throughout entire song

Guitar 1 (Intro/Chorus/Bridge)

E----------------------------------------------|
B----------------------------------------------|
G--------16---------16---------16---------16---|
D------14--14-----14--14-----14--14-----14--14-|
A----14---------14---------14---------14-------|
E----------------------------------------------|


Guitar 2 (Intro/Chorus/Bridge)

E-----------------------------------|
B-----------------------------------|
G------------4-4-4-\-2-2-2----\-2-2-|
D----2-2-2-/-4-4-4-\-2-2-2----\-2-2-|
A----2-2-2-/-2-2-2-\-0-0-0----\-0-0-|
E----0-0-0-/------------------------|


Guitar 3 (Verse)-Palm Mute

E------------------------------------|
B------------------------------------|
G-------------7-7-7-7--5-5-3-5-3-5-3-|
D----5-5-5-5--7-7-7-7--5-5-3-5-3-5-3-|
A----5-5-5-5--5-5-5-5--3-3-1-3-1-3-1-|
E----3-3-3-3-------------------------|


OK, here's how it's put together:

Intro: Play Guit. 1&2 part 4x
Verse: Play Guit. 3 4x
Chorus: Play Guit. 1&2 part 4x
Bridge: Play Guit. 1&2 part 8x


Some weird feedback stuff comes in here
(Intro)
(Verse)
Instead of running
Stay and keep it coming
You're getting your kicks right at the source
You're taking your guidance from the source

(Chorus):
Where do you get love?
Down below from heaven above?
Got a scary feeling I know
Where do you get love?

(Verse)
Am I the whore
You're working for?
I'm here if you want to keep me near
Much further away than I appear

(Chorus)

(Verse)
Instead of running
Stay and keep it coming
Stay and keep it coming
Stay and keep it coming

(Chorus) x 2

(Bridge)
            
Submit corrections

comments powered by Disqus
↑ Back to top | Matthew Sweet Tabs for Where You Get Love. Lyrics for acoustic guitar and electric guitar. Tablatures and chords are parodies/interpretations of the original songs. You may use it for private study, scholarship, research or language learning purposes only