» » »

Until You Break Tabs (ver.1)

Artists:  A B C D E F G H I J K L M N O P Q R S T U V W X Y Z # 

Until You Break Tabs (ver.1)

Matthew Sweet
Rating:
1/5 (1 vote)

Hard to play? Try these video lessons and learn fast.
                
Sent:   Thursday, January 08, 1998 12:07 PM

"Until you break "

Tom Martin

The Basic Form is:  E-A-B

Intro
E-------------------------|
B-----7--7----7-s-9---9---|
G-------------------------|
D-----7--7----7-s-9---9---|
A-------------------------|
E--0----------------------|X6

E-------------------------      ------------------------------|
B-----7--7----7-s-9---9---      ----7-s-9--7----5-5--4-4--2-2-|
G-------------------------      ------------------------------|
D-----7--7----7-s-9---9---      ----7-s-9--7-7--6-6--4-4--2-2-|
A-------------------------      -0----------------------------|
E--0---------------------- X4   ------------------------------|
Hanging on to your pride,
Trying not to decide

E--------------------|
B---2--2--2--0-2-0-2-|
G--------------------|
D-2--2--2------------|
A--------------------|
E--------------------|
Who could take you.

E-------------------------      -------------------------------|
B-----7--7----7-s-9---9---      ----7-s-9--7----5-5--4-4--2-2--|
G-------------------------      -------------------------------|
D-----7--7----7-s-9---9---      ----7-s-9--7-7--6-6--4-4--2-2--|
A-------------------------      -0-----------------------------|
E--0---------------------- X4   -------------------------------| X2
Do you hold it inside,
Let it fall by the way          I'll feel the way you feel

E---------------|
B--4----4--4----|
G--4------------|
D--4--4--4------|
A--2------------|
E---------------|
And tell you after.

Chorus:
E-------------------------     ----------------------|
B-----7--7----7-s-9---9---     ---7--7----7-s-5--5---|
G-------------------------     ----------------------|
D-----7--7----7-s-9---9---     ---7--7----7-s-6--6---|
A-------------------------     ----------------------|
E--0---------------------- X4  --0-------------------| X4
But how long does it take,
How long until you break,
To talk you into space,
How long until you break.

Put an end to your day
Turn the light out and say
That first I'll get to know
And love you after

Chorus
Solo

I'll feel the way you feel
And love you after

Chorus X2

Til you break, Til you break...
            
Hard to play? Try these video lessons and learn fast. | Correct




comments powered by Disqus
↑ Back to top | Tablatures and chords are parodies/interpretations of the original songs. You may use it for private study, scholarship, research or language learning purposes only