» » »

Farther Down Tabs (ver.1)

Artists:  A B C D E F G H I J K L M N O P Q R S T U V W X Y Z # 

Farther Down Tabs (ver.1)

Matthew Sweet
Rating:
5/5 (2 votes)

Hard to play? Try these video lessons and learn fast.
                -------------------------------------------------------------------------------
-------------------------------------------------------------------------------

Tuning: Standard

Intro/Verse/Chorus/Bridge
e|-----------------------|
B|-----------------------|
G|3~---3~------5~--------|
D|3~---3~------5~---3~---|
A|1~---0~------3~---3~---|
E|------------------1~---|


Or, for a more complicated version using chords...



Tuning: Capo on 3rd Fret


Intro/Verse/Chorus/Bridge
e|3~---2~------5~---x----|
B|3~---3~------x----3~---|
G|0~---2~------2~---2~---|
D|0~---0~------2~---0~---|
A|x----x-------0~---x----|
E|3~---2~------x----x----|



| /  slide up
| \  slide down
| h  hammer-on
| p  pull-off
| ~  vibrato
| +  harmonic
| x  Mute note
===============================================================================
            
Hard to play? Try these video lessons and learn fast. | Correct




comments powered by Disqus
↑ Back to top | Tablatures and chords are parodies/interpretations of the original songs. You may use it for private study, scholarship, research or language learning purposes only