» » »

Matthews Dave, Save Me Tabs (ver.1)

Artists:  A B C D E F G H I J K L M N O P Q R S T U V W X Y Z # 

Save Me Tabs (ver.1)

Matthews Dave Tabs
 Rating:
4/5 (4 votes)
Save Me lessons Tabs too difficult? Try these video lessons and learn fast
                #font                                                                             #


"Save Me" by Dave Matthews


Intro/Verse/Most of the chorus:

e|-----------|---------------------0----------|
b|-----------|---------------------1----------|
g|-(4)-------|-(4)-----(4)------2--0-(4)------|
d|--5---3-5--|--5--3-5--5--3-5--3--2--5--3-5--|
a|--5--------|--5-------5-------3--3--5-------|
E|--3--------|--3-------3-------1-----3-------|


End of the chorus ("Stranger, if you please.."):

e|--3--2--0--0-----0--|
b|--0--3--0--0--1--1--|
g|--0--2--0--0--2--0--|
d|--0--0--2--2--2--2--|
a|--2-----2--2--0--3--|
E|--3--2--0--0--------|


Bridge:

e|-----------3--|
b|--3--2--1--0--|
g|--4--2--2--0--|
d|--4--2--2--0--|
a|--2--0--0--2--|
E|-----------3--|


Outro:

e|---------------|
b|-------(5)-(5)-|
g|--2--2--5---5--|
d|--5--3--5---5--|
a|--5--3--3---3--|
E|--3--1---------|
            
Submit corrections

comments powered by Disqus
↑ Back to top | Matthews Dave Tabs for Save Me. Lyrics for acoustic guitar and electric guitar. Tablatures and chords are parodies/interpretations of the original songs. You may use it for private study, scholarship, research or language learning purposes only