» » »

Matthews Dave, Oh Standard Tuning Tabs (ver.1)

Artists:  A B C D E F G H I J K L M N O P Q R S T U V W X Y Z # 

Oh Standard Tuning Tabs (ver.1)

Matthews Dave Tabs
Rating:
0/5 (0 votes)
Oh Standard Tuning lessons Tabs too difficult? Try these video lessons and learn fast
                #font                                                                             #


"Oh" by Dave Matthews

Note: This song is also in RAISED BARITONE tuning (see: Stay Or Leave), and I don't think there's an easy way to play the baritone voicings in standard.. But here a couple possible alternatives..


Intro (Easy full chords):

e|--0--0--2--------------|
b|--0--2--3--3h5p3-0-----|
g|--1--2--2-----------2--|
d|--2--2--0--------------|
a|--2--0-----------------|
E|--0--------------------|


Intro (More accurate sounding, but tough fingering):

e|----4-------5---2--------------|
b|----5------(5)--3--3h5p3-0-----|
g|----4-----6-----2-----------2--|
d|--2---6/7-------0--------------|
a|-------------------------------|
E|-------------------------------|


Verse (Full chords):

e|--0-----0--0--|
b|--2-----2--0--|
g|--2--2--2--1--|
d|--2--4--2--2--|
a|--0--4--0--2--|
E|-----2-----0--|


Verse (More accurate):

e|--5------5-----|
b|--5--10--5--9--|
g|--6--11--6--9--|
d|--7--11--7--9--|
a|-----9------7--|
E|---------------|


Chorus (Full AND accurate!):

e|--2-----|
b|--3--3--|
g|--2--4--|
d|--0--4--|
a|-----2--|
E|--------|


Outro:

e|------------------------|----------------------|-----------------------|--0--|
b|------------------------|----------------------|---------------------7-|--0--|
g|--------7-------7-------|-------7------7-------|-------7------7--------|--2--|
d|-----11------11-----11--|----11-----11-----11--|----11-----11-----11---|--2--|
a|--10------10-----10-----|--9------9------9-----|--7------7------7------|--0--|
E|------------------------|----------------------|-----------------------|-----|
            
Submit corrections

comments powered by Disqus
↑ Back to top | Matthews Dave Tabs for Oh Standard Tuning. Lyrics for acoustic guitar and electric guitar. Tablatures and chords are parodies/interpretations of the original songs. You may use it for private study, scholarship, research or language learning purposes only