» » »

Grey Blue Eyes Tabs (ver.1)

Artists:  A B C D E F G H I J K L M N O P Q R S T U V W X Y Z # 

Grey Blue Eyes Tabs (ver.1)

Matthews Dave
Rating:
0/5 (0 votes)

Hard to play? Try these video lessons and learn fast.
                #font                                                                             #


"Grey Blue Eyes" by Dave Matthews


Intro - Pluck around over these chords:

e|--3--0--|
b|--0--1--|
g|--0--2--|
d|--0--2--|
a|--2--0--|
E|--3-----|


Verse Riff (G background chord):

e|-----------------------------|
b|--3h5p3p0--------------------|
g|----------0---2p0-----0---0--|
d|------------0-----0-4---4----|
a|-----------------------------|
E|-----------------------------|


Chorus chords:

e|--0--2--0--0--|
b|--0--3--1--1--|
g|--0--2--0--0--|
d|--2--0--2--2--|
a|--2-----3--3--|
E|--0-----------|


Post-Chorus:

e|--3--0-----0--3--0--3--3--|
b|--0--1--3--1--0--1--0--0--|
g|--0--2--0--0--0--2--0--0--|
d|--0--2--0--2--0--2--0--0--|
a|--2--0--2--3--2--0--2--2--|
E|--3-----------3-----3--3--|


Chorus alteration ("Don't forget my broken heart")

e|--3--3--0-----0--0--|
b|--0--0--0--3--1--1--|
g|--0--0--0--2--0--0--|
d|--0--0--2--0--2--2--|
a|--2--2--2-----3--3--|
E|--3--3--0--2--------|
            
Hard to play? Try these video lessons and learn fast. | Correct




comments powered by Disqus
↑ Back to top | Tablatures and chords are parodies/interpretations of the original songs. You may use it for private study, scholarship, research or language learning purposes only