» » »

Matthews Dave, Dont Drink The Water Tabs (ver.1)

Artists:  A B C D E F G H I J K L M N O P Q R S T U V W X Y Z # 

Dont Drink The Water Tabs (ver.1)

Matthews Dave Tabs
 Rating:
4/5 (4 votes)
Dont Drink The Water lessons Tabs too difficult? Try these video lessons and learn fast
                
NOTE: This song is in Drop D tuning (DADGBe)

“Come out, come out, no use in hiding…” This is pretty much the main chord.
e|--------
B|--------
G|---7---
D|---7---
A|---5—
D|---0---

“So you will lay your arms down…”                                “Yes I will call this home”
e|-------------------------------------------------------------------------------------------------
B|-------------------------------------------------------------------------------------------------
G|-7---------------------------------------------7-------------------------7---------------------
D|-7---------------------------------------------7-------------------------7--------------------- 
A|-5---------------------------------------------5-------------------------5----------------------
D|-5---------------------------------------------0-------------------------0---------------------

 “What’s this you say, you feel…”
e|-----------
B|-----------
G|---4------
D|---4------
A|---2------
D|---0------






“to remain and stay, well I will burry you”
e|------------------------------------------------------------------------------------------------
B|------------------------------------------------------------------------------------------------
G|-7---------------------------------------------7----------------------------------------------
D|-7---------------------------------------------7---------------------------------------------- 
A|-5---------------------------------------------5-----------------------------------------------
D|-5---------------------------------------------0----------------------------------------------


“And I live with my Justice”

e| -----------------------------
B| ----------------------------
G| -7-7-7-7-7-7-7-7-7-7-
D| -8-8-8-8-8-8h7-7-7-7-
A|--5-5-5-5-5-5-5-5-5-5-

Come out, come out, no use in hiding.
Come now, come now, can you not see
There's no place here, what were you expecting?
No room for both, just room for me.

So you will lay your arms down,
Yes, I will call this home.

Away, away, you have been banished.
Your land is gone, and given to me.

And here I will spread my wings.
Yes, I will call this home.

What's this you say, you feel a right to remain?
Then stay and I will bury you.

What's that you say, your father's spirit still lives in this place?
Well, I will silence you.

Here's the hitch, your horse is leaving.
Don't miss your boat, it's leaving now.

And as you go I will spread my wings.
Yes, I will call this home.
I have no time to justify to you,
Fool, you're blind, move aside for me.

All I can say to you my new neighbor,
You must move on or I will bury you.

Now as I rest my feet by this fire
Those hands once warmed here, but I have retired them.
I can breathe my own air and I can sleep more soundly
Upon these poor souls,
I'll build Heaven and call it home.
Cause you're all dead now.

I live with my justice
And I live with my greedy need
I live with no mercy
And I live with my frenzied feeding
I live with my hatred
And I live with my jealousy
I live with the notion that I don't need anyone but me

Don't Drink the Water
Don't Drink the Water
Blood in the water
Don't Drink the Water
            
Submit corrections

comments powered by Disqus
↑ Back to top | Matthews Dave Tabs for Dont Drink The Water. Lyrics for acoustic guitar and electric guitar. Tablatures and chords are parodies/interpretations of the original songs. You may use it for private study, scholarship, research or language learning purposes only