» » »

Matthews Dave, Dodo Tabs (ver.1)

Artists:  A B C D E F G H I J K L M N O P Q R S T U V W X Y Z # 

Dodo Tabs (ver.1)

Matthews Dave Tabs
Rating:
0/5 (0 votes)
Dodo lessons Tabs too difficult? Try these video lessons and learn fast
                #font                                                                             #


"Dodo" by Dave Matthews


Intro Chord/riff:

e|---|-----------------|
b|---|-----------------|
g|-3-|---5-3-2---2h3-3-|
d|-3-|---------3-------|
a|-1-|-1---------------|
E|---|-----------------|


Verse:

e|-----------|
b|-----------|
g|--3--------|
d|--3--5--3--|
a|--1--5--3--|
E|-----3--1--|


Chorus:

e|--------|------------|-(3)-|-----0--0--|-(3)-|---------|--------|
b|-----4--|-----1------|-(3)-|--1--0--1--|-(3)-|------1--|--1-----|
g|-----5--|--4--2-0-2--|--0--|--0--0--2--|--0--|--2-0-0--|--0--2--|
d|--5--5--|--5--2-0-3--|--0--|--2--2--2--|--0--|--3-0-2--|--2--3--|
a|--5--3--|--5--0---3--|--2--|--3--2--0--|--2--|--3---3--|--3--3--|
E|--3-----|--3----3-1--|--3--|-----0-----|--3--|--1-3----|-----1--|


Post-Chorus is same as verse (Bb, Gm, F), just with weird timing
            

comments powered by Disqus
↑ Back to top | Matthews Dave Tabs for Dodo. Lyrics for acoustic guitar and electric guitar. Tablatures and chords are parodies/interpretations of the original songs. You may use it for private study, scholarship, research or language learning purposes only