>
 >
Separate The People

Separate The People Guitar Tabs

Mates Of State - Separate The People chords, tabs, tablatures, lyrics

Guitar lessons | Add/correct | Request | Top 50 tabs Artists:  A B C D E F G H I J K L M N O P Q R S T U V W X Y Z 0-9

Separate The People Guitar Tabs – Mates Of State

CD, Sheet music, Poster

Do you like Separate The People? Share with your friends now
Tabs
This tab is 100% correct. Chords below.

Intro (this is right for the first time it plays, after that she screws around with it a
I recommend you do too.)

   C           Am          E11        C          G             C
e|------------------------------------------------------------------|
B|-----------------------5------------------------------------------|
G|-----9-7h9p7-------5h7------7/9-7p5-------2-5--4--2------2--------|  x2
D|-5------------7--7--------6---------5---5------------5-------5----|
A|------------------------------------------------------------------|
E|------------------------------------------------------------------|

Chorus(outlines the major chords with the 1st, 3rd, and 5th)

   C        F        C        F
e|------------------------------------------------------------------|
B|-------------1------------------------------------1---------------|
G|-----------2---2--------------------------------2---2-------------|
D|---0-2-0-3----------0-2-0--3------------0-2-0-3----------0-2-0--3-|
A|-3----------------3-------------------3----------------3----------|
E|------------------------------------------------------------------|


Verse
                       C
I will set it up with you,
         F              C
We will get inside his head,
              F               C
And we will tell him how to leave...
   G
a bitter land.

(Play the above riff again, and that G leads into...)

Bridge
                      C
I'll pretend I never knew,
           G     F          C
what the giants put them through.
              G       F       C
And all the shame he made in you.
              G         F
You are the bigger man.

[Pause]

Chorus
                    C              F                   C      F
And the arms are crossed, and the stills must all come down.
                C                          F            C
It's time to separate the people from the men who disregard them.

(Play the riff again, the G leads into...)

Verse
                       C
I will set it up with you,
        F               C
We will get inside his head,
             F              C
And we will tell him how to be...
   G
a bigger man.

Chorus
                C              F                   C      F
The arms are crossed, and the stills must all come down.
                C                          F            C
It's time to separate the people from the men who disregard them.

Outro

   C           Am          E11        C          G             C
e|------------------------------------------------------------------|
B|-----------------------5------------------------------------------|
G|-----9-7h9p7-------5h7------7/9-7p5-------5----4--2---------------|
D|-5------------7--7--------6---------5---5---5--------5---3---2----|
A|------------------------------------------------------------------|
E|------------------------------------------------------------------|


That's it! Thank you very much, this is my first tab and I'm pretty sure it's 100%. For
I like to play only the first 4 strings of each chord, and I bar them all except for the
Like I said, the "intro" is played frequently and different every time, so just play 
with it:) Have fun!





Comments


Popular Mates Of State tabs & chords
My Only Offer Chords
Nature And The Wreck Chords
The Re-arranger Chords
My Only Offer Intro Tabs
My Only Offer Ukulele
Nature And The Wreck Ukulele
The Re-arranger Ukulele


Song lyrics



↑ Back to top | Tablatures and chords are parodies/interpretations of the original songs. You may use it for private study, scholarship, research or language learning purposes only
© 2014 AZChords.com Contact us | Privacy policy | DMCA | Add/correct tabs | Request tabs | Top 50 tabs