>
 >
Overjoyed 1

Overjoyed 1 Chords

Matchbox Twenty - Overjoyed 1 chords, tabs, tablatures, lyrics

Guitar lessons | Add/correct | Request | Top 50 tabs Artists:  A B C D E F G H I J K L M N O P Q R S T U V W X Y Z 0-9

Overjoyed 1 Chords – Matchbox Twenty

CD, Sheet music, Poster

Do you like Overjoyed 1? Share with your friends now
ChordsChords v2Chords v3Chords v4Chords v5Ukulele
-------------------------------------------------------------------------------
                             Overjoyed  Matchbox Twenty
-------------------------------------------------------------------------------
Tuning:  EADGCe  **  note that b string is tuned up  step to c

Verse Chords:          *Cadd12       
   C/G    EmaddC        Csus4    C*  Gsus4       G5   Gadd4
e|--0-------0------3-----3-----3-----3-----3---------------------------------|
B|--0-------0------0-----0-----0-----2-----0---------------------------------|
G|--0-------0------0-----0-----0-----0-----0---------------------------------|
D|--2-------2------3-----2-----0-----0-----0---------------------------------|
A|--3-------2------3-----3-----x-----x-----2---------------------------------|
E|--3-------0------x-----x-----3-----3-----3---------------------------------|

Chorus Chords:
        C*        Dm11        Fadd2
e|------3-----/-----5-----/-----8--------------------------------------------|
B|------0-----------0-----------0--------------------------------------------|
G|------0-----------0-----------0--------------------------------------------|
D|------2-----/-----3-----/-----7--------------------------------------------|
A|------3-----/-----5-----/-----8--------------------------------------------|
E|------x-----------x-----------x--------------------------------------------|

Bridge Chords:
      Gadd4   Am7   Csus4
e|------3------3------3------------------------------------------------------|
B|------0------0------0------------------------------------------------------|
G|------0------2------0------------------------------------------------------|
D|------0------2------3------------------------------------------------------|
A|------2------0------3------------------------------------------------------|
E|------3------x------x------------------------------------------------------|

Intro:  C/G EmaddC  x2

Verse 1:  C/G        EmaddC               C/G          EmaddC        Csus4
          Feeling my hands start shaking  Hearing your voice I'm overjoyed
                C*       Gsus4 G5  Csus4   C*          Gsus4   G5
          I'm sorry but I have no choice   You're only getting bitter
          C/G       EmaddC             C/G          EmaddC               Csus4
          Maybe you have your reasons  Maybe you're scared you'll be let down
                   C*        Gsus4 G5        Csus4
          Are you crying when there's no one around?


Chorus:         Gadd4               C*      Dm11   Fadd2              
          Then maybe, maybe if you hold me, baby, let me come over
                  C*        Dm11   Fadd2
          I will tell you secrets nobody knows
                     C*   Dm11    Fadd2             C/G      EmaddC 
          I can not overstate it   I will be overjoyed

Verse 2:  C/G                EmaddC 
          That smile on your face like summer  
          C/G               EmaddC                  Csus4
          The way that your hand keeps touching mine
                 C*           Gsus4    G5    Csus4
          Let me be the one to make it right

Chorus:       Gadd4                 C*      Dm11  Fadd2
          And maybe, maybe let me hold you, baby, let me come over
                  C*       Dm11   Fadd2
          I will tell you secrets nobody knows
                     C*  Dm11     Fadd2          C/G(hammer 1st fret high E string)
          I can not overstate it  I will be overjoyed

          
Bridge:   Gadd4      Am7        Csus4      Gadd4
          And if you want we'll share this life
          Am7                          Csus4             Gadd4
          Anytime you need a friend I'm gonna be by your side
                      Am7  Csus4 Gadd4   Csus4 
          When nobody understands you... well I do

(High e string not played while drums are stopped)

Chorus:                    C*       Dm11  Fadd2
          So maybe let me hold you, baby, let me come over
                  C*      Dm11    Fadd2
          I will tell you secrets God only knows
                     C*  Dm11     Fadd2              C*
          I can not overstate it  I will be overjoyed
           Dm11 Fadd2             C*              Dm11
          Baby, let me come over  I will tell you secrets
           Fadd2                  C*  Dm11    Fadd2             C*    Dm11
          Nobody knows  I can not overstate it I will be overjoyed
           Fadd2             C*     Dm11   Fsus2             C*
          Well I will be overjoyed     Well I will be overjoyed

Based on performances by Kyle Cook and Rob Thomas   


************************************

| /   slide up
| \   slide down
| h   hammer-on
| p   pull-off
| ~   vibrato
| +   harmonic
| x   Mute note
| b   Bend
| pb  Pre-bend
| br  Bend release
| pbr Pre-bend release
| brb Bend release bend

********************************





Comments


Popular Matchbox Twenty tabs & chords
Real World Bass Tabs
Girl Like That Chords
Real World Chords
Unwell 1 Chords
3 Am 5 Tabs
3am Tabs
Bright Lights Tabs
Dizzy Ukulele
Soul Ukulele
These Hard Times Ukulele


Song lyrics



↑ Back to top | Tablatures and chords are parodies/interpretations of the original songs. You may use it for private study, scholarship, research or language learning purposes only
© 2014 AZChords.com Contact us | Privacy policy | DMCA | Add/correct tabs | Request tabs | Top 50 tabs