>
 >
3am

3am Guitar Tabs

Matchbox Twenty - 3am chords, tabs, tablatures, lyrics

Guitar lessons | Add/correct | Request | Top 50 tabs Artists:  A B C D E F G H I J K L M N O P Q R S T U V W X Y Z 0-9

3am Guitar Tabs – Matchbox Twenty

CD, Sheet music, Poster

Do you like 3am? Share with your friends now
ChordsTabsUkulele
im in love with this song, epic and this is how i play it

capo 1


           G     Cadd9 
e-------3--3-3-3-3---------------------------------------------|
B-------3--3-3-3-3---------------------------------------------|
G-----0-0--0-0-0-0---------------------------------------------|
D--0h2--0--0-0-0-2---------------------------------------------|
A-------2--2-2-2-3---------------------------------------------|
E-------3--3-3-3-x---------------------------------------------|

    G   Cadd9        D
e---3---3-----  -----2--0h2------------------------------------|
B---3---3-----  -----3-----3-------3--3------------------------|
G---0---0-----3x-----2------2----------0-----------------------|
D---0---2-----  -----0-------0----2-----0----------------------|
A---2---3-----  -----x---------0h3-----------------------------|
E---3---x-----  -----x-----------------------------------------| 
                           she says its cold outside. . .
(find the strumming pattern yourself)

    G   Cadd9        D
e---3---3-----  -----2--0h2------------------------------------|
B---3---3-----  -----3-----3-------3--3------------------------|
G---0---0-----2x-----2------2----------0-----------------------|
D---0---2-----  -----0-------0----2-----0----------------------|
A---2---3-----  -----x---------0h3-----------------------------|
E---3---x-----  -----x-----------------------------------------|
                            shes always worried about. . .


    G   Cadd9        D
e---3---3-----  -----2--0h2------------------------------------|
B---3---3-----  -----3-----3-------3--3------------------------|
G---0---0-----2x-----2------2----------0-----------------------|
D---0---2-----  -----0-------0----2-----0----------------------|
A---2---3-----  -----x---------0h3-----------------------------|
E---3---x-----  -----x-----------------------------------------|
                            she says its all gonna end. . .

    G   Cadd9        D
e---3---3-----  -----2--0h2------------------------------------|
B---3---3-----  -----3-----3-------3--3------------------------|
G---0---0-----2x-----2------2----------0-----------------------|
D---0---2-----  -----0-------0----2-----0----------------------|
A---2---3-----  -----x---------0h3-----------------------------|
E---3---x-----  -----x-----------------------------------------|
                        and she only sleeps when its raining
       G
e-----0h3-------3----------------------------------------------|
B----3---3----3--3---------------------------------------------|
G---0-----0----0--0--------------------------------------------|
D------------------0-------------------------------------------|
A--2---------3-------------------------------------------------|
E--------------------------------------------------------------|
   and she screams. . .

chorus
   G  D  C
e--3--2--0-----------------------------------------------------|
B--3--3--1-----------------------------------------------------|
G--0--2--0-----------------------------------------------------|
D--0-----2-----------------------------------------------------|
A--2-----3-----------------------------------------------------|
E--3-----x-----------------------------------------------------|



    G   Cadd9        D
e---3---3-----  -----2--0h2------------------------------------|
B---3---3-----  -----3-----3-------3--3------------------------|
G---0---0-----3x-----2------2----------0-----------------------|
D---0---2-----  -----0-------0----2-----0----------------------|
A---2---3-----  -----x---------0h3-----------------------------|
E---3---x-----  -----x-----------------------------------------| 
                           shes got a lil bit of something. . .

    G   Cadd9        D
e---3---3-----  -----2--0h2------------------------------------|
B---3---3-----  -----3-----3-------3--3------------------------|
G---0---0-----2x-----2------2----------0-----------------------|
D---0---2-----  -----0-------0----2-----0----------------------|
A---2---3-----  -----x---------0h3-----------------------------|
E---3---x-----  -----x-----------------------------------------|
                            and in her color portrait world. . .


    G   Cadd9        D
e---3---3-----  -----2--0h2------------------------------------|
B---3---3-----  -----3-----3-------3--3------------------------|
G---0---0-----2x-----2------2----------0-----------------------|
D---0---2-----  -----0-------0----2-----0----------------------|
A---2---3-----  -----x---------0h3-----------------------------|
E---3---x-----  -----x-----------------------------------------|
                            she swears the moon don't hang. . .

    G   Cadd9        D
e---3---3-----  -----2--0h2------------------------------------|
B---3---3-----  -----3-----3-------3--3------------------------|
G---0---0-----2x-----2------2----------0-----------------------|
D---0---2-----  -----0-------0----2-----0----------------------|
A---2---3-----  -----x---------0h3-----------------------------|
E---3---x-----  -----x-----------------------------------------|
                        and she only sleeps when its raining
       G
e-----0h3-------3----------------------------------------------|
B----3---3----3--3---------------------------------------------|
G---0-----0----0--0--------------------------------------------|
D------------------0-------------------------------------------|
A--2---------3-------------------------------------------------|
E--------------------------------------------------------------|
   and she screams. . .

repeat chorus then play this short riff

e------3------3------3------------------------------------------|
B-------3------3------3-----------------------------------------|
G-----0------0------0-------------------------------------------|
D--0h2----0h2----0h2--------------------------------------------|
A---------------------------------------------------------------|
E---------------------------------------------------------------|
                      oh heaven i believe

   D
e--0h2----------------------------------------------------------|
B-----3-------3--3----------------------------------------------|
G------2----------0---------------------------------------------|
D-------0----2-----0--------------------------------------------|
A---------0h3---------------------------------------------------|
E---------------------------------------------------------------| 
      she believes that life. . .


    G   Cadd9        D
e---3---3-----  -----2--0h2------------------------------------|
B---3---3-----  -----3-----3-------3--3------------------------|
G---0---0-----2x-----2------2----------0-----------------------|
D---0---2-----  -----0-------0----2-----0----------------------|
A---2---3-----  -----x---------0h3-----------------------------|
E---3---x-----  -----x-----------------------------------------|
                            and the clock on the wall. . .


    G   Cadd9        D
e---3---3-----  -----2--0h2------------------------------------|
B---3---3-----  -----3-----3-------3--3------------------------|
G---0---0-----2x-----2------2----------0-----------------------|
D---0---2-----  -----0-------0----2-----0----------------------|
A---2---3-----  -----x---------0h3-----------------------------|
E---3---x-----  -----x-----------------------------------------|
                            she thinks that happiness. . .

    G   Cadd9        D
e---3---3-----  -----2--0h2------------------------------------|
B---3---3-----  -----3-----3-------3--3------------------------|
G---0---0-----2x-----2------2----------0-----------------------|
D---0---2-----  -----0-------0----2-----0----------------------|
A---2---3-----  -----x---------0h3-----------------------------|
E---3---x-----  -----x-----------------------------------------|
                        but outside it's stopped raining

repeat chorus

    G   Cadd9        D
e---3---3-----  -----2--0h2------------------------------------|
B---3---3-----  -----3-----3-------3--3------------------------|
G---0---0-----3x-----2------2----------0-----------------------|
D---0---2-----  -----0-------0----2-----0----------------------|
A---2---3-----  -----x---------0h3-----------------------------|
E---3---x-----  -----x-----------------------------------------| 
                           she says its cold outside

this is my first tab and i really wanna hear from u, suggestions,
comments, violent reactions :D anything hit me up. 


:)





Comments


Popular Matchbox Twenty tabs & chords
Longday 2 Bass Tabs
Overjoyed Chords
Shame Chords
Sleeping At The Wheel 1 Chords
Unwell 4 Chords
Bent 2 Tabs
Disease 3 Tabs
Feel Intro Tabs
Suffer Me 2 Tabs
Leave Ukulele


Song lyrics



↑ Back to top | Tablatures and chords are parodies/interpretations of the original songs. You may use it for private study, scholarship, research or language learning purposes only
© 2014 AZChords.com Contact us | Privacy policy | DMCA | Add/correct tabs | Request tabs | Top 50 tabs