» » »

All I Need Tabs (ver.1)

Artists:  A B C D E F G H I J K L M N O P Q R S T U V W X Y Z # 

All I Need Tabs (ver.1)

Matchbox 20
Rating:
0/5 (0 votes)

Hard to play? Try these video lessons and learn fast.
                

Capo I

INTRO

-----------------------------------------
----0-----0------------------------------
-0h2-2-0-2-0-----------------------------
-----------------------------------------
-----------------------------------------
----------------------------------------- (x8)

VERSE
G,Em,Am,D x 2


Lick Lick Kyle plays in the Verse
-3/5-7-5-3-2--------3-0-3-3--------------
-------------3-----3-3-------------------
-----------------------------------------
-----------------------------------------
-----------------------------------------
-----------------------------------------

CHORUS
G,B,Em x 2
G,B,Em,C
D
G,B
Em,C
G,B,Em,C

VERSE 2
CHORUS

BRIDGE
Cm
Bm   
Em,Am
D,Am
D

CHORUS

That's it! It's an awesome song, so enjoy!
            
Hard to play? Try these video lessons and learn fast. | Correct




comments powered by Disqus
↑ Back to top | Tablatures and chords are parodies/interpretations of the original songs. You may use it for private study, scholarship, research or language learning purposes only