» » »

Matchbook Romance, You Can Run But Well Find You Tabs (ver.2)

Artists:  A B C D E F G H I J K L M N O P Q R S T U V W X Y Z # 

You Can Run But Well Find You Tabs (ver.2)

Matchbook Romance Tabs
Rating:
0/5 (0 votes)
You Can Run But Well Find You lessons Tabs too difficult? Try these video lessons and learn fast
                time signature: 4/4
tunning: down 1/2 a step (Eb - Ab - Db - Gb - Bb - Eb)

intro chords w/ piano:

    C        B7       Em       G
Eb--0--------2--------0--------3---|
Bb--1--------0--------0--------3---|
Gb--0--------2--------0--------0---|
Db--2--------1--------2--------0---| x3
Ab--3--------2--------2--------2---|
Eb--------------------0----0-2-3---|

   B5
Eb------|
Bb------|
Gb-4----|
Db------|
Ab-2----|
Eb------|

verse:
Eb-----------------------------------------------------------------|
Bb-----------------------------------------------------------------|
Gb-----------------------------------------------------------------|
Db-----------------------------------------------------------------| x2
Ab-----------------------------------------------------------------|
Eb-0-0-0-0-0-0-0-0-7-7-7-7-7-7-7-7-8-8-8-8-8-8-8-8-7-7-7-7-7-7-7-7-|
   P.M............................................................

chorus:
Eb---------------------------------------------------------|
Bb-------12---12-------10---10-------12---12-------8----8--|
Gb-9-9-9---------9-9-9---------9-9-9---------9-9-9---------|
Db---------------------------------------------------------|
Ab---------------------------------------------------------|
Eb---------------------------------------------------------|

Eb---------------------------------------------------------|
Bb-------12---12-------11---11-------10---10-------8----8--|
Gb-9-9-9---------9-9-9---------9-9-9---------9-9-9---------|
Db---------------------------------------------------------|
Ab---------------------------------------------------------|
Eb---------------------------------------------------------|

play that three times then:

Eb---------------------------------------------------------|
Bb-------12---12-------11---11-------10---10-------8----8--|
Gb-9-9-9---------9-9-9---------9-9-9---------9-9-9---------|
Db---------------------------------------------------------|
Ab---------------------------------------------------------|
Eb---------------------------------------------------------|

Eb---------------------------------------------------------|
Bb-------12---12-------11---11-------10---10-------8----8--|
Gb-8-8-8---------8-8-8---------8-8-8---------8-8-8---------|
Db---------------------------------------------------------|
Ab---------------------------------------------------------|
Eb---------------------------------------------------------|


verse:
Eb-----------------------------------------------------------------|
Bb-----------------------------------------------------------------|
Gb-----------------------------------------------------------------|
Db-----------------------------------------------------------------| x2
Ab-----------------------------------------------------------------|
Eb-0-0-0-0-0-0-0-0-7-7-7-7-7-7-7-7-8-8-8-8-8-8-8-8-7-7-7-7-7-7-7-7-|
   P.M............................................................

chorus:
Eb---------------------------------------------------------|
Bb-------12---12-------10---10-------12---12-------8----8--|
Gb-9-9-9---------9-9-9---------9-9-9---------9-9-9---------|
Db---------------------------------------------------------|
Ab---------------------------------------------------------|
Eb---------------------------------------------------------|

Eb---------------------------------------------------------|
Bb-------12---12-------11---11-------10---10-------8----8--|
Gb-9-9-9---------9-9-9---------9-9-9---------9-9-9---------|
Db---------------------------------------------------------|
Ab---------------------------------------------------------|
Eb---------------------------------------------------------|

play that three times then:

Eb---------------------------------------------------------|
Bb-------12---12-------11---11-------10---10-------8----8--|
Gb-9-9-9---------9-9-9---------9-9-9---------9-9-9---------|
Db---------------------------------------------------------|
Ab---------------------------------------------------------|
Eb---------------------------------------------------------|

Eb---------------------------------------------------------|
Bb-------12---12-------11---11-------10---10-------8----8--|
Gb-8-8-8---------8-8-8---------8-8-8---------8-8-8---------|
Db---------------------------------------------------------|
Ab---------------------------------------------------------|
Eb---------------------------------------------------------|


bridge(all trem. picked):
Eb-------------------------------------------------------------------------|
Bb-------------------------------------------------------------------------|
Gb-------------------------------------------------------------------------|
Db-------------------------------------------------------------------------|
Ab-7--7--7--10-10-10-7--7--7--10-10-10-9--9--9--6--6--6--9--9--9--6--6--6--|
Eb-------------------------------------------------------------------------|

Eb-------------------------------------------------------------------------|
Bb-------------------------------------------------------------------------|
Gb-------------------------------------------------------------------------|
Db-------------------------------------------------------------------------|
Ab-7--7--7--10-10-10-7--7--7--10-10-10-10-10-10-14-14-14-10-10-10-14-14-14-|
Eb-------------------------------------------------------------------------|

Eb-------------------------------------------------------------------------|
Bb-------------------------------------------------------------------------|
Gb-------------------------------------------------------------------------|
Db-------------------------------------------------------------------------|
Ab-12-12-12-9--9--9--12-12-12-9--9--9--12-12-12-8--8--8--12-12-12-8--8--8--|
Eb-------------------------------------------------------------------------|

play that twice

then:

Eb-------------------------------------------------------------------------|
Bb-------------------------------------------------------------------------|
Gb-------------------------------------------------------------------------|
Db-------------------------------------------------------------------------|
Ab-7--7--7--10-10-10-7--7--7--10-10-10-6--6--6--9--9--9--6--6--6--9--9--9--|
Eb-------------------------------------------------------------------------|

Eb-------------------------------------------------------------------------|
Bb-------------------------------------------------------------------------|
Gb-------------------------------------------------------------------------|
Db-------------------------------------------------------------------------|
Ab-5--5--5--9--9--9--5--5--5--9--9--9--3--3--3--7--7--7--3--3--3--7--7--7--|
Eb-------------------------------------------------------------------------|

Eb-------------------------------------------------------------------------|
Bb-------------------------------------------------------------------------|
Gb-------------------------------------------------------------------------|
Db-------------------------------------------------------------------------|
Ab-2--2--2--6--6--6--2--2--2--3--3--3--2--2--2--6--6--6--2--2--2--3--3--3--|
Eb-------------------------------------------------------------------------|

Eb-------------------------------------------------------------------------|
Bb-------------------------------------------------------------------------|
Gb-------------------------------------------------------------------------|
Db-------------------------------------------------------------------------|
Ab-2--2--2--6--6--6--2--2--2--3--3--3--2--2--2--6--6--6--6--6--6--6--6--6--|
Eb-------------------------------------------------------------------------|


chorus:
Eb---------------------------------------------------------|
Bb-------12---12-------10---10-------12---12-------8----8--|
Gb-9-9-9---------9-9-9---------9-9-9---------9-9-9---------|
Db---------------------------------------------------------|
Ab---------------------------------------------------------|
Eb---------------------------------------------------------|

Eb---------------------------------------------------------|
Bb-------12---12-------11---11-------10---10-------8----8--|
Gb-9-9-9---------9-9-9---------9-9-9---------9-9-9---------|
Db---------------------------------------------------------|
Ab---------------------------------------------------------|
Eb---------------------------------------------------------|

play that three times then:

Eb---------------------------------------------------------|
Bb-------12---12-------11---11-------10---10-------8----8--|
Gb-9-9-9---------9-9-9---------9-9-9---------9-9-9---------|
Db---------------------------------------------------------|
Ab---------------------------------------------------------|
Eb---------------------------------------------------------|

Eb---------------------------------------------------------|
Bb-------12---12-------11---11-------10---10-------8----8--|
Gb-8-8-8---------8-8-8---------8-8-8---------8-8-8---------|
Db---------------------------------------------------------|
Ab---------------------------------------------------------|
Eb---------------------------------------------------------|

outro:
Eb-----------------------------------------------|
Bb-----------------------------------------------|
Gb-----------------------------------------------|
Db-----------------------------------------------| x4
Ab-7-7----7-7-7-7----7-7-7-7----7-7-7-7-7-7-7-7--|
Eb-0-0----0-0-0-0----0-0-0-0----0-0-0-0-0-0-0-0--|

    C        B7       Em       G
Eb--0--------2--------0--------3---|
Bb--1--------0--------0--------3---|
Gb--0--------2--------0--------0---|
Db--2--------1--------2--------0---| x3
Ab--3--------2--------2--------2---|
Eb--------------------0----0-2-3---|

   B5
Eb------|
Bb------|
Gb------|
Db-4----|
Ab------|
Eb------|
            
Submit corrections

comments powered by Disqus
↑ Back to top | Matchbook Romance Tabs for You Can Run But Well Find You. Lyrics for acoustic guitar and electric guitar. Tablatures and chords are parodies/interpretations of the original songs. You may use it for private study, scholarship, research or language learning purposes only