» » »

What A Sight Tabs (ver.2)

Artists:  A B C D E F G H I J K L M N O P Q R S T U V W X Y Z # 

What A Sight Tabs (ver.2)

Matchbook Romance
Rating:
0/5 (0 votes)

Hard to play? Try these video lessons and learn fast.
                (0:00-0:10    &    1:54-2:04)

(x4)                    (x4)               (x4)
|-------------|-----------|------------|
|-------------|-----------|------------|
|--------0----|-----------|------------|
|----8--------|--------0--|--------0---|
|--6---6------|----8------|----8-------|
|-------------|--6---6----|--5---5-----|

(0:11-0:55 [x3]   &   2:04-2:18 [x1])

(x8)                    (x4)               (x4)
-------------|-----------|------------|
-------------|-----------|------------|
--------0----|-----------|------------|
----8--------|--------0--|--------0---|
--6---6------|----8------|----8-------|
-------------|--6---6----|--5---5-----|

(0:55-1:16   &   2:18-2:40)

 (x2)               (x2)                (x4)               (x4)             (x4)         
   (x4)                (x4)
-----------|-----------|-----------|----------|----------|-----------|-----------|
-----------|-----------|-----------|----------|----------|-----------|-----------|
--------0--|--------0--|--------0--|----------|----------|--------0--|---------0-|
----8------|----8------|----8------|-------0--|-------0--|----8------|----8------|
--6---6----|--5---5----|--6---6----|---8------|---8------|--6---6----|--5---5----|
-----------|-----------|-----------|--6--6----|--5--5----|-----------|-----------|

(1:17-1:20   &   2:41-2:44)

(x4)
------------|
------------|
----0-------|
------------|
--------6---|
--8---8-----|

Chorus ???????????? :-(

Outro
guitar 1 (3:17-end)
(x7)
-----------------------------------------------------------------------|
-----------------------------------------------------------------------|
-----------------------------------------------------------------------|
--5-5-5-5-5-5-5-5-3-3-3-1-1-1-1-1-4-4-4-4-4-4-4-4-3-3-3-1-1-1----------|
-----------------------------------------------------------------2-2---|
-----------------------------------------------------------------------|
...a little variation at the end

Outro
guitar 2 (3:17-3:45)
(x4)
-----------------------------------------------------------------------|
-----------------------------------------------------------------------|
-----------------------------------------------------------------------|
--6-6-6-6-6-6-6-6-4-4-4-2-2-2-2-2-5-5-5-5-5-5-5-5-5-5-5-7-7-7-7-7------|
-----------------------------------------------------------------------|
-----------------------------------------------------------------------|
...a little variation at the end
            
Hard to play? Try these video lessons and learn fast. | Correct




comments powered by Disqus
↑ Back to top | Tablatures and chords are parodies/interpretations of the original songs. You may use it for private study, scholarship, research or language learning purposes only